ISO-10303-21;
HEADER;
/* Generated by software containing ST-Developer
 * from STEP Tools, Inc. (www.steptools.com) 
 */
/* OPTION: strings as raw bytes, not using required /X/ escapes */

FILE_DESCRIPTION(
/* description */ ('Unknown'),
/* implementation_level */ '2;1');

FILE_NAME(
/* name */ '970120365',
/* time_stamp */ '2023-05-08T14:55:27+02:00',
/* author */ ('Unknown'),
/* organization */ ('Unknown'),
/* preprocessor_version */ 'ST-DEVELOPER v16.7',
/* originating_system */ 'Solid Edge',
/* authorisation */ 'Unknown');

FILE_SCHEMA (('AUTOMOTIVE_DESIGN {1 0 10303 214 3 1 1}'));
ENDSEC;

DATA;
#10=PROPERTY_DEFINITION_REPRESENTATION(#14,#12);
#11=PROPERTY_DEFINITION_REPRESENTATION(#15,#13);
#12=REPRESENTATION('',(#16),#396);
#13=REPRESENTATION('',(#17),#396);
#14=PROPERTY_DEFINITION('pmi validation property','',#401);
#15=PROPERTY_DEFINITION('pmi validation property','',#401);
#16=VALUE_REPRESENTATION_ITEM('number of annotations',COUNT_MEASURE(0.));
#17=VALUE_REPRESENTATION_ITEM('number of views',COUNT_MEASURE(0.));
#18=SHAPE_REPRESENTATION_RELATIONSHIP('','',#278,#19);
#19=ADVANCED_BREP_SHAPE_REPRESENTATION('',(#276),#396);
#20=CONICAL_SURFACE('',#293,1.4295,0.785398163397448);
#21=CONICAL_SURFACE('',#294,1.4295,0.785398163397448);
#22=CYLINDRICAL_SURFACE('',#290,1.2295);
#23=CIRCLE('',#287,1.4295);
#24=CIRCLE('',#289,1.4295);
#25=CIRCLE('',#291,1.2295);
#26=CIRCLE('',#292,1.2295);
#27=ORIENTED_EDGE('',*,*,#71,.T.);
#28=ORIENTED_EDGE('',*,*,#72,.F.);
#29=ORIENTED_EDGE('',*,*,#73,.F.);
#30=ORIENTED_EDGE('',*,*,#74,.T.);
#31=ORIENTED_EDGE('',*,*,#75,.T.);
#32=ORIENTED_EDGE('',*,*,#76,.F.);
#33=ORIENTED_EDGE('',*,*,#77,.F.);
#34=ORIENTED_EDGE('',*,*,#72,.T.);
#35=ORIENTED_EDGE('',*,*,#78,.T.);
#36=ORIENTED_EDGE('',*,*,#79,.F.);
#37=ORIENTED_EDGE('',*,*,#80,.F.);
#38=ORIENTED_EDGE('',*,*,#76,.T.);
#39=ORIENTED_EDGE('',*,*,#81,.T.);
#40=ORIENTED_EDGE('',*,*,#82,.F.);
#41=ORIENTED_EDGE('',*,*,#83,.F.);
#42=ORIENTED_EDGE('',*,*,#79,.T.);
#43=ORIENTED_EDGE('',*,*,#84,.T.);
#44=ORIENTED_EDGE('',*,*,#85,.F.);
#45=ORIENTED_EDGE('',*,*,#86,.F.);
#46=ORIENTED_EDGE('',*,*,#82,.T.);
#47=ORIENTED_EDGE('',*,*,#87,.T.);
#48=ORIENTED_EDGE('',*,*,#74,.F.);
#49=ORIENTED_EDGE('',*,*,#88,.F.);
#50=ORIENTED_EDGE('',*,*,#85,.T.);
#51=ORIENTED_EDGE('',*,*,#89,.T.);
#52=ORIENTED_EDGE('',*,*,#73,.T.);
#53=ORIENTED_EDGE('',*,*,#77,.T.);
#54=ORIENTED_EDGE('',*,*,#80,.T.);
#55=ORIENTED_EDGE('',*,*,#83,.T.);
#56=ORIENTED_EDGE('',*,*,#86,.T.);
#57=ORIENTED_EDGE('',*,*,#88,.T.);
#58=ORIENTED_EDGE('',*,*,#90,.T.);
#59=ORIENTED_EDGE('',*,*,#71,.F.);
#60=ORIENTED_EDGE('',*,*,#87,.F.);
#61=ORIENTED_EDGE('',*,*,#84,.F.);
#62=ORIENTED_EDGE('',*,*,#81,.F.);
#63=ORIENTED_EDGE('',*,*,#78,.F.);
#64=ORIENTED_EDGE('',*,*,#75,.F.);
#65=ORIENTED_EDGE('',*,*,#91,.T.);
#66=ORIENTED_EDGE('',*,*,#92,.T.);
#67=ORIENTED_EDGE('',*,*,#92,.F.);
#68=ORIENTED_EDGE('',*,*,#89,.F.);
#69=ORIENTED_EDGE('',*,*,#91,.F.);
#70=ORIENTED_EDGE('',*,*,#90,.F.);
#71=EDGE_CURVE('',#93,#94,#109,.T.);
#72=EDGE_CURVE('',#95,#94,#110,.T.);
#73=EDGE_CURVE('',#96,#95,#111,.T.);
#74=EDGE_CURVE('',#96,#93,#112,.T.);
#75=EDGE_CURVE('',#94,#97,#113,.T.);
#76=EDGE_CURVE('',#98,#97,#114,.T.);
#77=EDGE_CURVE('',#95,#98,#115,.T.);
#78=EDGE_CURVE('',#97,#99,#116,.T.);
#79=EDGE_CURVE('',#100,#99,#117,.T.);
#80=EDGE_CURVE('',#98,#100,#118,.T.);
#81=EDGE_CURVE('',#99,#101,#119,.T.);
#82=EDGE_CURVE('',#102,#101,#120,.T.);
#83=EDGE_CURVE('',#100,#102,#121,.T.);
#84=EDGE_CURVE('',#101,#103,#122,.T.);
#85=EDGE_CURVE('',#104,#103,#123,.T.);
#86=EDGE_CURVE('',#102,#104,#124,.T.);
#87=EDGE_CURVE('',#103,#93,#125,.T.);
#88=EDGE_CURVE('',#104,#96,#126,.T.);
#89=EDGE_CURVE('',#105,#105,#23,.T.);
#90=EDGE_CURVE('',#106,#106,#24,.T.);
#91=EDGE_CURVE('',#107,#107,#25,.T.);
#92=EDGE_CURVE('',#108,#108,#26,.T.);
#93=VERTEX_POINT('',#348);
#94=VERTEX_POINT('',#349);
#95=VERTEX_POINT('',#351);
#96=VERTEX_POINT('',#353);
#97=VERTEX_POINT('',#357);
#98=VERTEX_POINT('',#359);
#99=VERTEX_POINT('',#363);
#100=VERTEX_POINT('',#365);
#101=VERTEX_POINT('',#369);
#102=VERTEX_POINT('',#371);
#103=VERTEX_POINT('',#375);
#104=VERTEX_POINT('',#377);
#105=VERTEX_POINT('',#384);
#106=VERTEX_POINT('',#387);
#107=VERTEX_POINT('',#390);
#108=VERTEX_POINT('',#392);
#109=LINE('',#347,#127);
#110=LINE('',#350,#128);
#111=LINE('',#352,#129);
#112=LINE('',#354,#130);
#113=LINE('',#356,#131);
#114=LINE('',#358,#132);
#115=LINE('',#360,#133);
#116=LINE('',#362,#134);
#117=LINE('',#364,#135);
#118=LINE('',#366,#136);
#119=LINE('',#368,#137);
#120=LINE('',#370,#138);
#121=LINE('',#372,#139);
#122=LINE('',#374,#140);
#123=LINE('',#376,#141);
#124=LINE('',#378,#142);
#125=LINE('',#380,#143);
#126=LINE('',#381,#144);
#127=VECTOR('',#299,1000.);
#128=VECTOR('',#300,1000.);
#129=VECTOR('',#301,1000.);
#130=VECTOR('',#302,1000.);
#131=VECTOR('',#305,1000.);
#132=VECTOR('',#306,1000.);
#133=VECTOR('',#307,1000.);
#134=VECTOR('',#310,1000.);
#135=VECTOR('',#311,1000.);
#136=VECTOR('',#312,1000.);
#137=VECTOR('',#315,1000.);
#138=VECTOR('',#316,1000.);
#139=VECTOR('',#317,1000.);
#140=VECTOR('',#320,1000.);
#141=VECTOR('',#321,1000.);
#142=VECTOR('',#322,1000.);
#143=VECTOR('',#325,1000.);
#144=VECTOR('',#326,1000.);
#145=EDGE_LOOP('',(#27,#28,#29,#30));
#146=EDGE_LOOP('',(#31,#32,#33,#34));
#147=EDGE_LOOP('',(#35,#36,#37,#38));
#148=EDGE_LOOP('',(#39,#40,#41,#42));
#149=EDGE_LOOP('',(#43,#44,#45,#46));
#150=EDGE_LOOP('',(#47,#48,#49,#50));
#151=EDGE_LOOP('',(#51));
#152=EDGE_LOOP('',(#52,#53,#54,#55,#56,#57));
#153=EDGE_LOOP('',(#58));
#154=EDGE_LOOP('',(#59,#60,#61,#62,#63,#64));
#155=EDGE_LOOP('',(#65));
#156=EDGE_LOOP('',(#66));
#157=EDGE_LOOP('',(#67));
#158=EDGE_LOOP('',(#68));
#159=EDGE_LOOP('',(#69));
#160=EDGE_LOOP('',(#70));
#161=FACE_BOUND('',#145,.T.);
#162=FACE_BOUND('',#146,.T.);
#163=FACE_BOUND('',#147,.T.);
#164=FACE_BOUND('',#148,.T.);
#165=FACE_BOUND('',#149,.T.);
#166=FACE_BOUND('',#150,.T.);
#167=FACE_BOUND('',#151,.T.);
#168=FACE_BOUND('',#152,.T.);
#169=FACE_BOUND('',#153,.T.);
#170=FACE_BOUND('',#154,.T.);
#171=FACE_BOUND('',#155,.T.);
#172=FACE_BOUND('',#156,.T.);
#173=FACE_BOUND('',#157,.T.);
#174=FACE_BOUND('',#158,.T.);
#175=FACE_BOUND('',#159,.T.);
#176=FACE_BOUND('',#160,.T.);
#177=PLANE('',#280);
#178=PLANE('',#281);
#179=PLANE('',#282);
#180=PLANE('',#283);
#181=PLANE('',#284);
#182=PLANE('',#285);
#183=PLANE('',#286);
#184=PLANE('',#288);
#185=STYLED_ITEM('',(#196),#264);
#186=STYLED_ITEM('',(#197),#265);
#187=STYLED_ITEM('',(#198),#266);
#188=STYLED_ITEM('',(#199),#267);
#189=STYLED_ITEM('',(#200),#268);
#190=STYLED_ITEM('',(#201),#269);
#191=STYLED_ITEM('',(#202),#270);
#192=STYLED_ITEM('',(#203),#271);
#193=STYLED_ITEM('',(#204),#272);
#194=STYLED_ITEM('',(#205),#273);
#195=STYLED_ITEM('',(#206),#274);
#196=PRESENTATION_STYLE_ASSIGNMENT((#207));
#197=PRESENTATION_STYLE_ASSIGNMENT((#208));
#198=PRESENTATION_STYLE_ASSIGNMENT((#209));
#199=PRESENTATION_STYLE_ASSIGNMENT((#210));
#200=PRESENTATION_STYLE_ASSIGNMENT((#211));
#201=PRESENTATION_STYLE_ASSIGNMENT((#212));
#202=PRESENTATION_STYLE_ASSIGNMENT((#213));
#203=PRESENTATION_STYLE_ASSIGNMENT((#214));
#204=PRESENTATION_STYLE_ASSIGNMENT((#215));
#205=PRESENTATION_STYLE_ASSIGNMENT((#216));
#206=PRESENTATION_STYLE_ASSIGNMENT((#217));
#207=SURFACE_STYLE_USAGE(.BOTH.,#218);
#208=SURFACE_STYLE_USAGE(.BOTH.,#219);
#209=SURFACE_STYLE_USAGE(.BOTH.,#220);
#210=SURFACE_STYLE_USAGE(.BOTH.,#221);
#211=SURFACE_STYLE_USAGE(.BOTH.,#222);
#212=SURFACE_STYLE_USAGE(.BOTH.,#223);
#213=SURFACE_STYLE_USAGE(.BOTH.,#224);
#214=SURFACE_STYLE_USAGE(.BOTH.,#225);
#215=SURFACE_STYLE_USAGE(.BOTH.,#226);
#216=SURFACE_STYLE_USAGE(.BOTH.,#227);
#217=SURFACE_STYLE_USAGE(.BOTH.,#228);
#218=SURFACE_SIDE_STYLE('',(#229));
#219=SURFACE_SIDE_STYLE('',(#230));
#220=SURFACE_SIDE_STYLE('',(#231));
#221=SURFACE_SIDE_STYLE('',(#232));
#222=SURFACE_SIDE_STYLE('',(#233));
#223=SURFACE_SIDE_STYLE('',(#234));
#224=SURFACE_SIDE_STYLE('',(#235));
#225=SURFACE_SIDE_STYLE('',(#236));
#226=SURFACE_SIDE_STYLE('',(#237));
#227=SURFACE_SIDE_STYLE('',(#238));
#228=SURFACE_SIDE_STYLE('',(#239));
#229=SURFACE_STYLE_FILL_AREA(#240);
#230=SURFACE_STYLE_FILL_AREA(#241);
#231=SURFACE_STYLE_FILL_AREA(#242);
#232=SURFACE_STYLE_FILL_AREA(#243);
#233=SURFACE_STYLE_FILL_AREA(#244);
#234=SURFACE_STYLE_FILL_AREA(#245);
#235=SURFACE_STYLE_FILL_AREA(#246);
#236=SURFACE_STYLE_FILL_AREA(#247);
#237=SURFACE_STYLE_FILL_AREA(#248);
#238=SURFACE_STYLE_FILL_AREA(#249);
#239=SURFACE_STYLE_FILL_AREA(#250);
#240=FILL_AREA_STYLE('',(#251));
#241=FILL_AREA_STYLE('',(#252));
#242=FILL_AREA_STYLE('',(#253));
#243=FILL_AREA_STYLE('',(#254));
#244=FILL_AREA_STYLE('',(#255));
#245=FILL_AREA_STYLE('',(#256));
#246=FILL_AREA_STYLE('',(#257));
#247=FILL_AREA_STYLE('',(#258));
#248=FILL_AREA_STYLE('',(#259));
#249=FILL_AREA_STYLE('',(#260));
#250=FILL_AREA_STYLE('',(#261));
#251=FILL_AREA_STYLE_COLOUR('',#262);
#252=FILL_AREA_STYLE_COLOUR('',#262);
#253=FILL_AREA_STYLE_COLOUR('',#262);
#254=FILL_AREA_STYLE_COLOUR('',#262);
#255=FILL_AREA_STYLE_COLOUR('',#262);
#256=FILL_AREA_STYLE_COLOUR('',#262);
#257=FILL_AREA_STYLE_COLOUR('',#262);
#258=FILL_AREA_STYLE_COLOUR('',#262);
#259=FILL_AREA_STYLE_COLOUR('',#263);
#260=FILL_AREA_STYLE_COLOUR('',#262);
#261=FILL_AREA_STYLE_COLOUR('',#262);
#262=COLOUR_RGB('',0.200000002980232,0.200000002980232,0.200000002980232);
#263=COLOUR_RGB('',0.1875,0.75,0.581249892711639);
#264=ADVANCED_FACE('',(#161),#177,.F.);
#265=ADVANCED_FACE('',(#162),#178,.F.);
#266=ADVANCED_FACE('',(#163),#179,.F.);
#267=ADVANCED_FACE('',(#164),#180,.F.);
#268=ADVANCED_FACE('',(#165),#181,.F.);
#269=ADVANCED_FACE('',(#166),#182,.F.);
#270=ADVANCED_FACE('',(#167,#168),#183,.T.);
#271=ADVANCED_FACE('',(#169,#170),#184,.F.);
#272=ADVANCED_FACE('',(#171,#172),#22,.F.);
#273=ADVANCED_FACE('',(#173,#174),#20,.F.);
#274=ADVANCED_FACE('',(#175,#176),#21,.F.);
#275=CLOSED_SHELL('',(#264,#265,#266,#267,#268,#269,#270,#271,#272,#273,
#274));
#276=MANIFOLD_SOLID_BREP('',#275);
#277=SHAPE_DEFINITION_REPRESENTATION(#401,#278);
#278=SHAPE_REPRESENTATION('970120365',(#279),#396);
#279=AXIS2_PLACEMENT_3D('',#345,#295,#296);
#280=AXIS2_PLACEMENT_3D('',#346,#297,#298);
#281=AXIS2_PLACEMENT_3D('',#355,#303,#304);
#282=AXIS2_PLACEMENT_3D('',#361,#308,#309);
#283=AXIS2_PLACEMENT_3D('',#367,#313,#314);
#284=AXIS2_PLACEMENT_3D('',#373,#318,#319);
#285=AXIS2_PLACEMENT_3D('',#379,#323,#324);
#286=AXIS2_PLACEMENT_3D('',#382,#327,#328);
#287=AXIS2_PLACEMENT_3D('',#383,#329,#330);
#288=AXIS2_PLACEMENT_3D('',#385,#331,#332);
#289=AXIS2_PLACEMENT_3D('',#386,#333,#334);
#290=AXIS2_PLACEMENT_3D('',#388,#335,#336);
#291=AXIS2_PLACEMENT_3D('',#389,#337,#338);
#292=AXIS2_PLACEMENT_3D('',#391,#339,#340);
#293=AXIS2_PLACEMENT_3D('',#393,#341,#342);
#294=AXIS2_PLACEMENT_3D('',#394,#343,#344);
#295=DIRECTION('',(0.,0.,1.));
#296=DIRECTION('',(1.,0.,0.));
#297=DIRECTION('',(-2.00308613164954E-15,1.,0.));
#298=DIRECTION('',(-1.,-2.00308613164954E-15,0.));
#299=DIRECTION('',(1.,2.00308613164954E-15,0.));
#300=DIRECTION('',(0.,0.,-1.));
#301=DIRECTION('',(1.,2.00308613164954E-15,0.));
#302=DIRECTION('',(0.,0.,-1.));
#303=DIRECTION('',(-0.866025403784439,0.5,0.));
#304=DIRECTION('',(-0.5,-0.866025403784439,0.));
#305=DIRECTION('',(0.5,0.866025403784439,0.));
#306=DIRECTION('',(0.,0.,-1.));
#307=DIRECTION('',(0.5,0.866025403784439,0.));
#308=DIRECTION('',(-0.866025403784439,-0.5,0.));
#309=DIRECTION('',(0.5,-0.866025403784439,0.));
#310=DIRECTION('',(-0.5,0.866025403784439,0.));
#311=DIRECTION('',(0.,0.,-1.));
#312=DIRECTION('',(-0.5,0.866025403784439,0.));
#313=DIRECTION('',(2.12827901487764E-15,-1.,0.));
#314=DIRECTION('',(1.,2.12827901487764E-15,0.));
#315=DIRECTION('',(-1.,-2.12827901487764E-15,0.));
#316=DIRECTION('',(0.,0.,-1.));
#317=DIRECTION('',(-1.,-2.12827901487764E-15,0.));
#318=DIRECTION('',(0.866025403784441,-0.499999999999995,0.));
#319=DIRECTION('',(0.499999999999995,0.866025403784441,0.));
#320=DIRECTION('',(-0.499999999999995,-0.866025403784441,0.));
#321=DIRECTION('',(0.,0.,-1.));
#322=DIRECTION('',(-0.499999999999995,-0.866025403784441,0.));
#323=DIRECTION('',(0.866025403784441,0.499999999999996,0.));
#324=DIRECTION('',(-0.499999999999996,0.866025403784441,0.));
#325=DIRECTION('',(0.499999999999996,-0.866025403784441,0.));
#326=DIRECTION('',(0.499999999999996,-0.866025403784441,0.));
#327=DIRECTION('',(0.,0.,1.));
#328=DIRECTION('',(1.,0.,0.));
#329=DIRECTION('',(0.,0.,-1.));
#330=DIRECTION('',(1.,0.,0.));
#331=DIRECTION('',(0.,0.,1.));
#332=DIRECTION('',(1.,0.,0.));
#333=DIRECTION('',(0.,0.,1.));
#334=DIRECTION('',(1.,0.,0.));
#335=DIRECTION('',(0.,0.,-1.));
#336=DIRECTION('',(0.,-1.,0.));
#337=DIRECTION('',(0.,0.,-1.));
#338=DIRECTION('',(-1.,0.,0.));
#339=DIRECTION('',(0.,0.,1.));
#340=DIRECTION('',(1.,0.,0.));
#341=DIRECTION('',(0.,0.,1.));
#342=DIRECTION('',(1.,0.,0.));
#343=DIRECTION('',(0.,0.,-1.));
#344=DIRECTION('',(1.,0.,0.));
#345=CARTESIAN_POINT('',(0.,0.,0.));
#346=CARTESIAN_POINT('',(-1.73205080756888,-3.,6.));
#347=CARTESIAN_POINT('',(-1.73205080756888,-3.,-6.));
#348=CARTESIAN_POINT('',(-1.73205080756888,-3.,-6.));
#349=CARTESIAN_POINT('',(1.73205080756888,-3.,-6.));
#350=CARTESIAN_POINT('',(1.73205080756888,-3.,6.));
#351=CARTESIAN_POINT('',(1.73205080756888,-3.,6.));
#352=CARTESIAN_POINT('',(-1.73205080756888,-3.,6.));
#353=CARTESIAN_POINT('',(-1.73205080756888,-3.,6.));
#354=CARTESIAN_POINT('',(-1.73205080756888,-3.,6.));
#355=CARTESIAN_POINT('',(1.73205080756888,-3.,6.));
#356=CARTESIAN_POINT('',(1.73205080756888,-3.,-6.));
#357=CARTESIAN_POINT('',(3.46410161513775,0.,-6.));
#358=CARTESIAN_POINT('',(3.46410161513775,0.,6.));
#359=CARTESIAN_POINT('',(3.46410161513775,0.,6.));
#360=CARTESIAN_POINT('',(1.73205080756888,-3.,6.));
#361=CARTESIAN_POINT('',(3.46410161513775,-2.16840434497101E-16,6.));
#362=CARTESIAN_POINT('',(3.46410161513775,-2.16840434497101E-16,-6.));
#363=CARTESIAN_POINT('',(1.73205080756888,3.,-6.));
#364=CARTESIAN_POINT('',(1.73205080756888,3.,6.));
#365=CARTESIAN_POINT('',(1.73205080756888,3.,6.));
#366=CARTESIAN_POINT('',(3.46410161513775,-2.16840434497101E-16,6.));
#367=CARTESIAN_POINT('',(1.73205080756888,3.,6.));
#368=CARTESIAN_POINT('',(1.73205080756888,3.,-6.));
#369=CARTESIAN_POINT('',(-1.73205080756888,3.,-6.));
#370=CARTESIAN_POINT('',(-1.73205080756888,3.,6.));
#371=CARTESIAN_POINT('',(-1.73205080756888,3.,6.));
#372=CARTESIAN_POINT('',(1.73205080756888,3.,6.));
#373=CARTESIAN_POINT('',(-1.73205080756888,3.,6.));
#374=CARTESIAN_POINT('',(-1.73205080756888,3.,-6.));
#375=CARTESIAN_POINT('',(-3.46410161513774,-5.63785129692462E-15,-6.));
#376=CARTESIAN_POINT('',(-3.46410161513774,-5.63785129692462E-15,6.));
#377=CARTESIAN_POINT('',(-3.46410161513774,-5.63785129692462E-15,6.));
#378=CARTESIAN_POINT('',(-1.73205080756888,3.,6.));
#379=CARTESIAN_POINT('',(-3.46410161513774,-5.70619361946356E-15,6.));
#380=CARTESIAN_POINT('',(-3.46410161513774,-5.70619361946356E-15,-6.));
#381=CARTESIAN_POINT('',(-3.46410161513774,-5.70619361946356E-15,6.));
#382=CARTESIAN_POINT('',(0.,0.,6.));
#383=CARTESIAN_POINT('',(0.,0.,6.));
#384=CARTESIAN_POINT('',(1.4295,0.,6.));
#385=CARTESIAN_POINT('',(0.,0.,-6.));
#386=CARTESIAN_POINT('',(0.,0.,-6.));
#387=CARTESIAN_POINT('',(1.4295,0.,-6.));
#388=CARTESIAN_POINT('',(0.,0.,6.));
#389=CARTESIAN_POINT('',(0.,0.,-5.8));
#390=CARTESIAN_POINT('',(-1.2295,0.,-5.8));
#391=CARTESIAN_POINT('',(0.,0.,5.8));
#392=CARTESIAN_POINT('',(1.2295,0.,5.8));
#393=CARTESIAN_POINT('',(0.,0.,6.));
#394=CARTESIAN_POINT('',(0.,0.,-6.));
#395=MECHANICAL_DESIGN_GEOMETRIC_PRESENTATION_REPRESENTATION('',(#185,#186,
#187,#188,#189,#190,#191,#192,#193,#194,#195),#396);
#396=(
GEOMETRIC_REPRESENTATION_CONTEXT(3)
GLOBAL_UNCERTAINTY_ASSIGNED_CONTEXT((#397))
GLOBAL_UNIT_ASSIGNED_CONTEXT((#400,#399,#398))
REPRESENTATION_CONTEXT('970120365','TOP_LEVEL_ASSEMBLY_PART')
);
#397=UNCERTAINTY_MEASURE_WITH_UNIT(LENGTH_MEASURE(0.005),#400,
'DISTANCE_ACCURACY_VALUE','Maximum Tolerance applied to model');
#398=(
NAMED_UNIT(*)
SI_UNIT($,.STERADIAN.)
SOLID_ANGLE_UNIT()
);
#399=(
NAMED_UNIT(*)
PLANE_ANGLE_UNIT()
SI_UNIT($,.RADIAN.)
);
#400=(
LENGTH_UNIT()
NAMED_UNIT(*)
SI_UNIT(.MILLI.,.METRE.)
);
#401=PRODUCT_DEFINITION_SHAPE('','',#402);
#402=PRODUCT_DEFINITION('','',#404,#403);
#403=PRODUCT_DEFINITION_CONTEXT('',#410,'design');
#404=PRODUCT_DEFINITION_FORMATION_WITH_SPECIFIED_SOURCE('','',#406,
 .NOT_KNOWN.);
#405=PRODUCT_RELATED_PRODUCT_CATEGORY('','',(#406));
#406=PRODUCT('970120365','970120365','970120365',(#408));
#407=PRODUCT_CATEGORY('','');
#408=PRODUCT_CONTEXT('',#410,'mechanical');
#409=APPLICATION_PROTOCOL_DEFINITION('international standard',
'automotive_design',2010,#410);
#410=APPLICATION_CONTEXT(
'core data for automotive mechanical design processes');
ENDSEC;
END-ISO-10303-21;
