ISO-10303-21;
HEADER;
FILE_DESCRIPTION( ( 'Unknown' ), '1' );
FILE_NAME( 'I:/User_Groups_Only/17_EMC_Product_&_Development/Article_Master/eiCan/Assembly/As_SMRA/Master_Data/01_CAD_drawing/1_Drawing/7466303/Released_Data/7466303.stp', 'Unknown', ( 'Unknown' ), ( 'Unknown' ), 'PSStep 18.0.17', 'Unknown', '  ' );
FILE_SCHEMA( ( 'AUTOMOTIVE_DESIGN { 1 0 10303 214 1 1 1 1 }' ) );
ENDSEC;
DATA;
#1 = MECHANICAL_DESIGN_GEOMETRIC_PRESENTATION_REPRESENTATION( ' ', ( #10, #11, #12, #13, #14, #15, #16, #17, #18, #19, #20, #21, #22 ), #6 );
#2 = PRODUCT_DEFINITION_CONTEXT( '', #23, 'design' );
#3 = APPLICATION_PROTOCOL_DEFINITION( 'international standard', 'automotive_design', 2001, #23 );
#4 = PRODUCT_CATEGORY_RELATIONSHIP( 'NONE', 'NONE', #24, #25 );
#5 = SHAPE_DEFINITION_REPRESENTATION( #26, #27 );
#6 =  ( GEOMETRIC_REPRESENTATION_CONTEXT( 3 )GLOBAL_UNCERTAINTY_ASSIGNED_CONTEXT( ( #30 ) )GLOBAL_UNIT_ASSIGNED_CONTEXT( ( #32, #33, #34 ) )REPRESENTATION_CONTEXT( 'NONE', 'WORKSPACE' ) );
#10 = STYLED_ITEM( '', ( #36 ), #37 );
#11 = STYLED_ITEM( '', ( #38 ), #39 );
#12 = STYLED_ITEM( '', ( #40 ), #41 );
#13 = STYLED_ITEM( '', ( #42 ), #43 );
#14 = STYLED_ITEM( '', ( #44 ), #45 );
#15 = STYLED_ITEM( '', ( #46 ), #47 );
#16 = STYLED_ITEM( '', ( #48 ), #49 );
#17 = STYLED_ITEM( '', ( #50 ), #51 );
#18 = STYLED_ITEM( '', ( #52 ), #53 );
#19 = STYLED_ITEM( '', ( #54 ), #55 );
#20 = STYLED_ITEM( '', ( #56 ), #57 );
#21 = STYLED_ITEM( '', ( #58 ), #59 );
#22 = STYLED_ITEM( '', ( #60 ), #61 );
#23 = APPLICATION_CONTEXT( 'core data for automotive mechanical design processes' );
#24 = PRODUCT_CATEGORY( 'part', 'NONE' );
#25 = PRODUCT_RELATED_PRODUCT_CATEGORY( 'detail', ' ', ( #62 ) );
#26 = PRODUCT_DEFINITION_SHAPE( 'NONE', 'NONE', #63 );
#27 = ADVANCED_BREP_SHAPE_REPRESENTATION( '1', ( #64, #65 ), #6 );
#30 = UNCERTAINTY_MEASURE_WITH_UNIT( LENGTH_MEASURE( 0.00100000000000000 ), #32, '', '' );
#32 =  ( CONVERSION_BASED_UNIT( 'MILLIMETRE', #68 )LENGTH_UNIT(  )NAMED_UNIT( #71 ) );
#33 =  ( NAMED_UNIT( #73 )PLANE_ANGLE_UNIT(  )SI_UNIT( $, .RADIAN. ) );
#34 =  ( NAMED_UNIT( #73 )SI_UNIT( $, .STERADIAN. )SOLID_ANGLE_UNIT(  ) );
#36 = PRESENTATION_STYLE_ASSIGNMENT( ( #79 ) );
#37 = ADVANCED_FACE( '', ( #80, #81 ), #82, .F. );
#38 = PRESENTATION_STYLE_ASSIGNMENT( ( #83 ) );
#39 = ADVANCED_FACE( '', ( #84 ), #85, .T. );
#40 = PRESENTATION_STYLE_ASSIGNMENT( ( #86 ) );
#41 = ADVANCED_FACE( '', ( #87 ), #88, .T. );
#42 = PRESENTATION_STYLE_ASSIGNMENT( ( #89 ) );
#43 = ADVANCED_FACE( '', ( #90, #91 ), #92, .T. );
#44 = PRESENTATION_STYLE_ASSIGNMENT( ( #93 ) );
#45 = ADVANCED_FACE( '', ( #94, #95 ), #96, .F. );
#46 = PRESENTATION_STYLE_ASSIGNMENT( ( #97 ) );
#47 = ADVANCED_FACE( '', ( #98 ), #99, .F. );
#48 = PRESENTATION_STYLE_ASSIGNMENT( ( #100 ) );
#49 = ADVANCED_FACE( '', ( #101 ), #102, .T. );
#50 = PRESENTATION_STYLE_ASSIGNMENT( ( #103 ) );
#51 = ADVANCED_FACE( '', ( #104 ), #105, .F. );
#52 = PRESENTATION_STYLE_ASSIGNMENT( ( #106 ) );
#53 = ADVANCED_FACE( '', ( #107 ), #108, .T. );
#54 = PRESENTATION_STYLE_ASSIGNMENT( ( #109 ) );
#55 = ADVANCED_FACE( '', ( #110, #111 ), #112, .F. );
#56 = PRESENTATION_STYLE_ASSIGNMENT( ( #113 ) );
#57 = ADVANCED_FACE( '', ( #114, #115 ), #116, .F. );
#58 = PRESENTATION_STYLE_ASSIGNMENT( ( #117 ) );
#59 = ADVANCED_FACE( '', ( #118 ), #119, .T. );
#60 = PRESENTATION_STYLE_ASSIGNMENT( ( #120 ) );
#61 = ADVANCED_FACE( '', ( #121 ), #122, .T. );
#62 = PRODUCT( '1', '1', 'PART-1-DESC', ( #123 ) );
#63 = PRODUCT_DEFINITION( 'NONE', 'NONE', #124, #2 );
#64 = MANIFOLD_SOLID_BREP( '1', #125 );
#65 = AXIS2_PLACEMENT_3D( '', #126, #127, #128 );
#68 = LENGTH_MEASURE_WITH_UNIT( LENGTH_MEASURE( 1.00000000000000 ), #129 );
#71 = DIMENSIONAL_EXPONENTS( 1.00000000000000, 0.000000000000000, 0.000000000000000, 0.000000000000000, 0.000000000000000, 0.000000000000000, 0.000000000000000 );
#73 = DIMENSIONAL_EXPONENTS( 0.000000000000000, 0.000000000000000, 0.000000000000000, 0.000000000000000, 0.000000000000000, 0.000000000000000, 0.000000000000000 );
#79 = SURFACE_STYLE_USAGE( .BOTH., #130 );
#80 = FACE_OUTER_BOUND( '', #131, .T. );
#81 = FACE_OUTER_BOUND( '', #132, .T. );
#82 = CYLINDRICAL_SURFACE( '', #133, 1.22950000000000 );
#83 = SURFACE_STYLE_USAGE( .BOTH., #134 );
#84 = FACE_OUTER_BOUND( '', #135, .T. );
#85 = PLANE( '', #136 );
#86 = SURFACE_STYLE_USAGE( .BOTH., #137 );
#87 = FACE_OUTER_BOUND( '', #138, .T. );
#88 = PLANE( '', #139 );
#89 = SURFACE_STYLE_USAGE( .BOTH., #140 );
#90 = FACE_BOUND( '', #141, .T. );
#91 = FACE_OUTER_BOUND( '', #142, .T. );
#92 = PLANE( '', #143 );
#93 = SURFACE_STYLE_USAGE( .BOTH., #144 );
#94 = FACE_OUTER_BOUND( '', #145, .T. );
#95 = FACE_BOUND( '', #146, .T. );
#96 = CONICAL_SURFACE( '', #147, 1.22950000000000, 0.785398163400000 );
#97 = SURFACE_STYLE_USAGE( .BOTH., #148 );
#98 = FACE_OUTER_BOUND( '', #149, .T. );
#99 = CYLINDRICAL_SURFACE( '', #150, 50.0000000000000 );
#100 = SURFACE_STYLE_USAGE( .BOTH., #151 );
#101 = FACE_OUTER_BOUND( '', #152, .T. );
#102 = PLANE( '', #153 );
#103 = SURFACE_STYLE_USAGE( .BOTH., #154 );
#104 = FACE_OUTER_BOUND( '', #155, .T. );
#105 = CYLINDRICAL_SURFACE( '', #156, 50.0000000000000 );
#106 = SURFACE_STYLE_USAGE( .BOTH., #157 );
#107 = FACE_OUTER_BOUND( '', #158, .T. );
#108 = PLANE( '', #159 );
#109 = SURFACE_STYLE_USAGE( .BOTH., #160 );
#110 = FACE_BOUND( '', #161, .T. );
#111 = FACE_OUTER_BOUND( '', #162, .T. );
#112 = PLANE( '', #163 );
#113 = SURFACE_STYLE_USAGE( .BOTH., #164 );
#114 = FACE_BOUND( '', #165, .T. );
#115 = FACE_OUTER_BOUND( '', #166, .T. );
#116 = CONICAL_SURFACE( '', #167, 1.59950000000000, 0.785398163400000 );
#117 = SURFACE_STYLE_USAGE( .BOTH., #168 );
#118 = FACE_OUTER_BOUND( '', #169, .T. );
#119 = PLANE( '', #170 );
#120 = SURFACE_STYLE_USAGE( .BOTH., #171 );
#121 = FACE_OUTER_BOUND( '', #172, .T. );
#122 = PLANE( '', #173 );
#123 = PRODUCT_CONTEXT( '', #23, 'mechanical' );
#124 = PRODUCT_DEFINITION_FORMATION_WITH_SPECIFIED_SOURCE( ' ', 'NONE', #62, .NOT_KNOWN. );
#125 = CLOSED_SHELL( '', ( #45, #37, #57, #55, #43, #53, #61, #59, #39, #47, #41, #51, #49 ) );
#126 = CARTESIAN_POINT( '', ( 0.000000000000000, 0.000000000000000, 0.000000000000000 ) );
#127 = DIRECTION( '', ( 0.000000000000000, 0.000000000000000, 1.00000000000000 ) );
#128 = DIRECTION( '', ( 1.00000000000000, 0.000000000000000, 0.000000000000000 ) );
#129 =  ( LENGTH_UNIT(  )NAMED_UNIT( #71 )SI_UNIT( .MILLI., .METRE. ) );
#130 = SURFACE_SIDE_STYLE( '', ( #175 ) );
#131 = EDGE_LOOP( '', ( #176 ) );
#132 = EDGE_LOOP( '', ( #177 ) );
#133 = AXIS2_PLACEMENT_3D( '', #178, #179, #180 );
#134 = SURFACE_SIDE_STYLE( '', ( #181 ) );
#135 = EDGE_LOOP( '', ( #182, #183, #184, #185 ) );
#136 = AXIS2_PLACEMENT_3D( '', #186, #187, #188 );
#137 = SURFACE_SIDE_STYLE( '', ( #189 ) );
#138 = EDGE_LOOP( '', ( #190, #191, #192, #193 ) );
#139 = AXIS2_PLACEMENT_3D( '', #194, #195, #196 );
#140 = SURFACE_SIDE_STYLE( '', ( #197 ) );
#141 = EDGE_LOOP( '', ( #198 ) );
#142 = EDGE_LOOP( '', ( #199, #200, #201, #202 ) );
#143 = AXIS2_PLACEMENT_3D( '', #203, #204, #205 );
#144 = SURFACE_SIDE_STYLE( '', ( #206 ) );
#145 = EDGE_LOOP( '', ( #207 ) );
#146 = EDGE_LOOP( '', ( #208 ) );
#147 = AXIS2_PLACEMENT_3D( '', #209, #210, #211 );
#148 = SURFACE_SIDE_STYLE( '', ( #212 ) );
#149 = EDGE_LOOP( '', ( #213, #214, #215, #216 ) );
#150 = AXIS2_PLACEMENT_3D( '', #217, #218, #219 );
#151 = SURFACE_SIDE_STYLE( '', ( #220 ) );
#152 = EDGE_LOOP( '', ( #221, #222, #223, #224 ) );
#153 = AXIS2_PLACEMENT_3D( '', #225, #226, #227 );
#154 = SURFACE_SIDE_STYLE( '', ( #228 ) );
#155 = EDGE_LOOP( '', ( #229, #230, #231, #232 ) );
#156 = AXIS2_PLACEMENT_3D( '', #233, #234, #235 );
#157 = SURFACE_SIDE_STYLE( '', ( #236 ) );
#158 = EDGE_LOOP( '', ( #237, #238, #239, #240 ) );
#159 = AXIS2_PLACEMENT_3D( '', #241, #242, #243 );
#160 = SURFACE_SIDE_STYLE( '', ( #244 ) );
#161 = EDGE_LOOP( '', ( #245 ) );
#162 = EDGE_LOOP( '', ( #246, #247, #248, #249 ) );
#163 = AXIS2_PLACEMENT_3D( '', #250, #251, #252 );
#164 = SURFACE_SIDE_STYLE( '', ( #253 ) );
#165 = EDGE_LOOP( '', ( #254 ) );
#166 = EDGE_LOOP( '', ( #255 ) );
#167 = AXIS2_PLACEMENT_3D( '', #256, #257, #258 );
#168 = SURFACE_SIDE_STYLE( '', ( #259 ) );
#169 = EDGE_LOOP( '', ( #260, #261, #262, #263, #264, #265, #266, #267 ) );
#170 = AXIS2_PLACEMENT_3D( '', #268, #269, #270 );
#171 = SURFACE_SIDE_STYLE( '', ( #271 ) );
#172 = EDGE_LOOP( '', ( #272, #273, #274, #275, #276, #277, #278, #279 ) );
#173 = AXIS2_PLACEMENT_3D( '', #280, #281, #282 );
#175 = SURFACE_STYLE_FILL_AREA( #283 );
#176 = ORIENTED_EDGE( '', *, *, #284, .T. );
#177 = ORIENTED_EDGE( '', *, *, #285, .T. );
#178 = CARTESIAN_POINT( '', ( 3.69843333342503E-016, -3.50000000000000, 1.98000000000000 ) );
#179 = DIRECTION( '', ( -0.000000000000000, -1.00000000000000, -0.000000000000000 ) );
#180 = DIRECTION( '', ( 0.000000000000000, 0.000000000000000, -1.00000000000000 ) );
#181 = SURFACE_STYLE_FILL_AREA( #286 );
#182 = ORIENTED_EDGE( '', *, *, #287, .F. );
#183 = ORIENTED_EDGE( '', *, *, #288, .F. );
#184 = ORIENTED_EDGE( '', *, *, #289, .T. );
#185 = ORIENTED_EDGE( '', *, *, #290, .T. );
#186 = CARTESIAN_POINT( '', ( 2.49000000000000, -3.50000000000000, -3.02181597689609E-016 ) );
#187 = DIRECTION( '', ( 1.22464679914735E-016, 0.000000000000000, -1.00000000000000 ) );
#188 = DIRECTION( '', ( -1.00000000000000, 0.000000000000000, -1.22464679914735E-016 ) );
#189 = SURFACE_STYLE_FILL_AREA( #291 );
#190 = ORIENTED_EDGE( '', *, *, #292, .T. );
#191 = ORIENTED_EDGE( '', *, *, #293, .T. );
#192 = ORIENTED_EDGE( '', *, *, #294, .T. );
#193 = ORIENTED_EDGE( '', *, *, #295, .T. );
#194 = CARTESIAN_POINT( '', ( 0.000000000000000, -3.00000000000000, 54.4187061806771 ) );
#195 = DIRECTION( '', ( 0.000000000000000, -1.00000000000000, 0.000000000000000 ) );
#196 = DIRECTION( '', ( 0.000000000000000, 0.000000000000000, -1.00000000000000 ) );
#197 = SURFACE_STYLE_FILL_AREA( #296 );
#198 = ORIENTED_EDGE( '', *, *, #297, .T. );
#199 = ORIENTED_EDGE( '', *, *, #298, .F. );
#200 = ORIENTED_EDGE( '', *, *, #299, .T. );
#201 = ORIENTED_EDGE( '', *, *, #287, .T. );
#202 = ORIENTED_EDGE( '', *, *, #300, .T. );
#203 = CARTESIAN_POINT( '', ( 0.000000000000000, 3.50000000000000, 0.000000000000000 ) );
#204 = DIRECTION( '', ( 0.000000000000000, 1.00000000000000, 0.000000000000000 ) );
#205 = DIRECTION( '', ( 0.000000000000000, 0.000000000000000, 1.00000000000000 ) );
#206 = SURFACE_STYLE_FILL_AREA( #301 );
#207 = ORIENTED_EDGE( '', *, *, #297, .F. );
#208 = ORIENTED_EDGE( '', *, *, #284, .F. );
#209 = CARTESIAN_POINT( '', ( 3.69843333342503E-016, 3.13000000000000, 1.98000000000000 ) );
#210 = DIRECTION( '', ( -0.000000000000000, 1.00000000000000, -0.000000000000000 ) );
#211 = DIRECTION( '', ( 0.000000000000000, 0.000000000000000, 1.00000000000000 ) );
#212 = SURFACE_STYLE_FILL_AREA( #302 );
#213 = ORIENTED_EDGE( '', *, *, #303, .T. );
#214 = ORIENTED_EDGE( '', *, *, #304, .F. );
#215 = ORIENTED_EDGE( '', *, *, #294, .F. );
#216 = ORIENTED_EDGE( '', *, *, #305, .T. );
#217 = CARTESIAN_POINT( '', ( 0.000000000000000, -3.00000000000000, 54.4187061806771 ) );
#218 = DIRECTION( '', ( -0.000000000000000, 1.00000000000000, -0.000000000000000 ) );
#219 = DIRECTION( '', ( 0.000000000000000, 0.000000000000000, -1.00000000000000 ) );
#220 = SURFACE_STYLE_FILL_AREA( #306 );
#221 = ORIENTED_EDGE( '', *, *, #307, .T. );
#222 = ORIENTED_EDGE( '', *, *, #308, .T. );
#223 = ORIENTED_EDGE( '', *, *, #309, .T. );
#224 = ORIENTED_EDGE( '', *, *, #310, .T. );
#225 = CARTESIAN_POINT( '', ( 0.000000000000000, 3.00000000000000, 54.4187061806771 ) );
#226 = DIRECTION( '', ( 0.000000000000000, 1.00000000000000, 0.000000000000000 ) );
#227 = DIRECTION( '', ( 0.000000000000000, 0.000000000000000, 1.00000000000000 ) );
#228 = SURFACE_STYLE_FILL_AREA( #311 );
#229 = ORIENTED_EDGE( '', *, *, #298, .T. );
#230 = ORIENTED_EDGE( '', *, *, #312, .F. );
#231 = ORIENTED_EDGE( '', *, *, #310, .F. );
#232 = ORIENTED_EDGE( '', *, *, #313, .T. );
#233 = CARTESIAN_POINT( '', ( 0.000000000000000, 3.00000000000000, 54.4187061806771 ) );
#234 = DIRECTION( '', ( -0.000000000000000, -1.00000000000000, -0.000000000000000 ) );
#235 = DIRECTION( '', ( 0.000000000000000, 0.000000000000000, 1.00000000000000 ) );
#236 = SURFACE_STYLE_FILL_AREA( #314 );
#237 = ORIENTED_EDGE( '', *, *, #315, .T. );
#238 = ORIENTED_EDGE( '', *, *, #308, .F. );
#239 = ORIENTED_EDGE( '', *, *, #316, .F. );
#240 = ORIENTED_EDGE( '', *, *, #292, .F. );
#241 = CARTESIAN_POINT( '', ( -2.49000000000000, -3.50000000000000, 4.98000000000000 ) );
#242 = DIRECTION( '', ( -1.74169023692450E-016, 0.000000000000000, 1.00000000000000 ) );
#243 = DIRECTION( '', ( 1.00000000000000, 0.000000000000000, 1.74169023692450E-016 ) );
#244 = SURFACE_STYLE_FILL_AREA( #317 );
#245 = ORIENTED_EDGE( '', *, *, #318, .T. );
#246 = ORIENTED_EDGE( '', *, *, #319, .F. );
#247 = ORIENTED_EDGE( '', *, *, #303, .F. );
#248 = ORIENTED_EDGE( '', *, *, #320, .F. );
#249 = ORIENTED_EDGE( '', *, *, #289, .F. );
#250 = CARTESIAN_POINT( '', ( 0.000000000000000, -3.50000000000000, 0.000000000000000 ) );
#251 = DIRECTION( '', ( 0.000000000000000, 1.00000000000000, 0.000000000000000 ) );
#252 = DIRECTION( '', ( 0.000000000000000, 0.000000000000000, 1.00000000000000 ) );
#253 = SURFACE_STYLE_FILL_AREA( #321 );
#254 = ORIENTED_EDGE( '', *, *, #285, .F. );
#255 = ORIENTED_EDGE( '', *, *, #318, .F. );
#256 = CARTESIAN_POINT( '', ( 3.69843333342503E-016, -3.50000000000000, 1.98000000000000 ) );
#257 = DIRECTION( '', ( 0.000000000000000, -1.00000000000000, -0.000000000000000 ) );
#258 = DIRECTION( '', ( 0.000000000000000, 0.000000000000000, -1.00000000000000 ) );
#259 = SURFACE_STYLE_FILL_AREA( #322 );
#260 = ORIENTED_EDGE( '', *, *, #312, .T. );
#261 = ORIENTED_EDGE( '', *, *, #300, .F. );
#262 = ORIENTED_EDGE( '', *, *, #290, .F. );
#263 = ORIENTED_EDGE( '', *, *, #320, .T. );
#264 = ORIENTED_EDGE( '', *, *, #305, .F. );
#265 = ORIENTED_EDGE( '', *, *, #293, .F. );
#266 = ORIENTED_EDGE( '', *, *, #316, .T. );
#267 = ORIENTED_EDGE( '', *, *, #307, .F. );
#268 = CARTESIAN_POINT( '', ( -2.49000000000000, -3.50000000000000, -9.12055703664991E-016 ) );
#269 = DIRECTION( '', ( -1.00000000000000, 0.000000000000000, 0.000000000000000 ) );
#270 = DIRECTION( '', ( 0.000000000000000, 0.000000000000000, 1.00000000000000 ) );
#271 = SURFACE_STYLE_FILL_AREA( #323 );
#272 = ORIENTED_EDGE( '', *, *, #313, .F. );
#273 = ORIENTED_EDGE( '', *, *, #309, .F. );
#274 = ORIENTED_EDGE( '', *, *, #315, .F. );
#275 = ORIENTED_EDGE( '', *, *, #295, .F. );
#276 = ORIENTED_EDGE( '', *, *, #304, .T. );
#277 = ORIENTED_EDGE( '', *, *, #319, .T. );
#278 = ORIENTED_EDGE( '', *, *, #288, .T. );
#279 = ORIENTED_EDGE( '', *, *, #299, .F. );
#280 = CARTESIAN_POINT( '', ( 2.49000000000000, -3.50000000000000, 4.98000000000000 ) );
#281 = DIRECTION( '', ( 1.00000000000000, 0.000000000000000, 0.000000000000000 ) );
#282 = DIRECTION( '', ( 0.000000000000000, 0.000000000000000, -1.00000000000000 ) );
#283 = FILL_AREA_STYLE( '', ( #324 ) );
#284 = EDGE_CURVE( '', #325, #325, #326, .T. );
#285 = EDGE_CURVE( '', #327, #327, #328, .F. );
#286 = FILL_AREA_STYLE( '', ( #329 ) );
#287 = EDGE_CURVE( '', #330, #331, #332, .T. );
#288 = EDGE_CURVE( '', #333, #330, #334, .T. );
#289 = EDGE_CURVE( '', #333, #335, #336, .T. );
#290 = EDGE_CURVE( '', #335, #331, #337, .T. );
#291 = FILL_AREA_STYLE( '', ( #338 ) );
#292 = EDGE_CURVE( '', #339, #340, #341, .T. );
#293 = EDGE_CURVE( '', #340, #342, #343, .T. );
#294 = EDGE_CURVE( '', #342, #344, #345, .T. );
#295 = EDGE_CURVE( '', #344, #339, #346, .T. );
#296 = FILL_AREA_STYLE( '', ( #347 ) );
#297 = EDGE_CURVE( '', #348, #348, #349, .F. );
#298 = EDGE_CURVE( '', #350, #351, #352, .T. );
#299 = EDGE_CURVE( '', #350, #330, #353, .T. );
#300 = EDGE_CURVE( '', #331, #351, #354, .T. );
#301 = FILL_AREA_STYLE( '', ( #355 ) );
#302 = FILL_AREA_STYLE( '', ( #356 ) );
#303 = EDGE_CURVE( '', #357, #358, #359, .T. );
#304 = EDGE_CURVE( '', #344, #358, #360, .T. );
#305 = EDGE_CURVE( '', #342, #357, #361, .T. );
#306 = FILL_AREA_STYLE( '', ( #362 ) );
#307 = EDGE_CURVE( '', #363, #364, #365, .T. );
#308 = EDGE_CURVE( '', #364, #366, #367, .T. );
#309 = EDGE_CURVE( '', #366, #368, #369, .T. );
#310 = EDGE_CURVE( '', #368, #363, #370, .T. );
#311 = FILL_AREA_STYLE( '', ( #371 ) );
#312 = EDGE_CURVE( '', #363, #351, #372, .T. );
#313 = EDGE_CURVE( '', #368, #350, #373, .T. );
#314 = FILL_AREA_STYLE( '', ( #374 ) );
#315 = EDGE_CURVE( '', #339, #366, #375, .T. );
#316 = EDGE_CURVE( '', #340, #364, #376, .T. );
#317 = FILL_AREA_STYLE( '', ( #377 ) );
#318 = EDGE_CURVE( '', #378, #378, #379, .T. );
#319 = EDGE_CURVE( '', #358, #333, #380, .T. );
#320 = EDGE_CURVE( '', #335, #357, #381, .T. );
#321 = FILL_AREA_STYLE( '', ( #382 ) );
#322 = FILL_AREA_STYLE( '', ( #383 ) );
#323 = FILL_AREA_STYLE( '', ( #384 ) );
#324 = FILL_AREA_STYLE_COLOUR( '', #385 );
#325 = VERTEX_POINT( '', #386 );
#326 = CIRCLE( '', #387, 1.22950000000000 );
#327 = VERTEX_POINT( '', #388 );
#328 = CIRCLE( '', #389, 1.22950000000000 );
#329 = FILL_AREA_STYLE_COLOUR( '', #390 );
#330 = VERTEX_POINT( '', #391 );
#331 = VERTEX_POINT( '', #392 );
#332 = LINE( '', #393, #394 );
#333 = VERTEX_POINT( '', #395 );
#334 = LINE( '', #396, #397 );
#335 = VERTEX_POINT( '', #398 );
#336 = LINE( '', #399, #400 );
#337 = LINE( '', #401, #402 );
#338 = FILL_AREA_STYLE_COLOUR( '', #403 );
#339 = VERTEX_POINT( '', #404 );
#340 = VERTEX_POINT( '', #405 );
#341 = LINE( '', #406, #407 );
#342 = VERTEX_POINT( '', #408 );
#343 = LINE( '', #409, #410 );
#344 = VERTEX_POINT( '', #411 );
#345 = CIRCLE( '', #412, 50.0000000000000 );
#346 = LINE( '', #413, #414 );
#347 = FILL_AREA_STYLE_COLOUR( '', #415 );
#348 = VERTEX_POINT( '', #416 );
#349 = CIRCLE( '', #417, 1.59950000000000 );
#350 = VERTEX_POINT( '', #418 );
#351 = VERTEX_POINT( '', #419 );
#352 = CIRCLE( '', #420, 50.0000000000000 );
#353 = LINE( '', #421, #422 );
#354 = LINE( '', #423, #424 );
#355 = FILL_AREA_STYLE_COLOUR( '', #425 );
#356 = FILL_AREA_STYLE_COLOUR( '', #426 );
#357 = VERTEX_POINT( '', #427 );
#358 = VERTEX_POINT( '', #428 );
#359 = CIRCLE( '', #429, 50.0000000000000 );
#360 = LINE( '', #430, #431 );
#361 = LINE( '', #432, #433 );
#362 = FILL_AREA_STYLE_COLOUR( '', #434 );
#363 = VERTEX_POINT( '', #435 );
#364 = VERTEX_POINT( '', #436 );
#365 = LINE( '', #437, #438 );
#366 = VERTEX_POINT( '', #439 );
#367 = LINE( '', #440, #441 );
#368 = VERTEX_POINT( '', #442 );
#369 = LINE( '', #443, #444 );
#370 = CIRCLE( '', #445, 50.0000000000000 );
#371 = FILL_AREA_STYLE_COLOUR( '', #446 );
#372 = LINE( '', #447, #448 );
#373 = LINE( '', #449, #450 );
#374 = FILL_AREA_STYLE_COLOUR( '', #451 );
#375 = LINE( '', #452, #453 );
#376 = LINE( '', #454, #455 );
#377 = FILL_AREA_STYLE_COLOUR( '', #456 );
#378 = VERTEX_POINT( '', #457 );
#379 = CIRCLE( '', #458, 1.59950000000000 );
#380 = LINE( '', #459, #460 );
#381 = LINE( '', #461, #462 );
#382 = FILL_AREA_STYLE_COLOUR( '', #463 );
#383 = FILL_AREA_STYLE_COLOUR( '', #464 );
#384 = FILL_AREA_STYLE_COLOUR( '', #465 );
#385 = COLOUR_RGB( '', 0.184313729400000, 0.749019622800000, 0.580392181900000 );
#386 = CARTESIAN_POINT( '', ( 3.69843333342503E-016, 3.13000000000000, 3.20950000000000 ) );
#387 = AXIS2_PLACEMENT_3D( '', #466, #467, #468 );
#388 = CARTESIAN_POINT( '', ( 3.69843333342503E-016, -3.13000000000000, 3.20950000000000 ) );
#389 = AXIS2_PLACEMENT_3D( '', #469, #470, #471 );
#390 = COLOUR_RGB( '', 0.505882382400000, 0.529411792800000, 0.549019634700000 );
#391 = CARTESIAN_POINT( '', ( 2.49000000000000, 3.50000000000000, -3.02181597689609E-016 ) );
#392 = CARTESIAN_POINT( '', ( -2.49000000000000, 3.50000000000000, -9.12055703664991E-016 ) );
#393 = CARTESIAN_POINT( '', ( 2.49000000000000, 3.50000000000000, -3.02181597689609E-016 ) );
#394 = VECTOR( '', #472, 1000.00000000000 );
#395 = CARTESIAN_POINT( '', ( 2.49000000000000, -3.50000000000000, -3.02181597689609E-016 ) );
#396 = CARTESIAN_POINT( '', ( 2.49000000000000, -3.50000000000000, -3.02181597689609E-016 ) );
#397 = VECTOR( '', #473, 1000.00000000000 );
#398 = CARTESIAN_POINT( '', ( -2.49000000000000, -3.50000000000000, -9.12055703664991E-016 ) );
#399 = CARTESIAN_POINT( '', ( 2.49000000000000, -3.50000000000000, -3.02181597689609E-016 ) );
#400 = VECTOR( '', #474, 1000.00000000000 );
#401 = CARTESIAN_POINT( '', ( -2.49000000000000, -3.50000000000000, -9.12055703664991E-016 ) );
#402 = VECTOR( '', #475, 1000.00000000000 );
#403 = COLOUR_RGB( '', 0.505882382400000, 0.529411792800000, 0.549019634700000 );
#404 = CARTESIAN_POINT( '', ( 2.49000000000000, -3.00000000000000, 4.98000000000000 ) );
#405 = CARTESIAN_POINT( '', ( -2.49000000000000, -3.00000000000000, 4.98000000000000 ) );
#406 = CARTESIAN_POINT( '', ( -2.49000000000000, -3.00000000000000, 4.98000000000000 ) );
#407 = VECTOR( '', #476, 1000.00000000000 );
#408 = CARTESIAN_POINT( '', ( -2.49000000000000, -3.00000000000000, 4.48074566965906 ) );
#409 = CARTESIAN_POINT( '', ( -2.49000000000000, -3.00000000000000, 4.98000000000000 ) );
#410 = VECTOR( '', #477, 1000.00000000000 );
#411 = CARTESIAN_POINT( '', ( 2.49000000000000, -3.00000000000000, 4.48074566965906 ) );
#412 = AXIS2_PLACEMENT_3D( '', #478, #479, #480 );
#413 = CARTESIAN_POINT( '', ( 2.49000000000000, -3.00000000000000, 4.98000000000000 ) );
#414 = VECTOR( '', #481, 1000.00000000000 );
#415 = COLOUR_RGB( '', 0.505882382400000, 0.529411792800000, 0.549019634700000 );
#416 = CARTESIAN_POINT( '', ( 3.69843333342503E-016, 3.50000000000000, 3.57950000000000 ) );
#417 = AXIS2_PLACEMENT_3D( '', #482, #483, #484 );
#418 = CARTESIAN_POINT( '', ( 2.49000000000000, 3.50000000000000, 4.48074566965906 ) );
#419 = CARTESIAN_POINT( '', ( -2.49000000000000, 3.50000000000000, 4.48074566965906 ) );
#420 = AXIS2_PLACEMENT_3D( '', #485, #486, #487 );
#421 = CARTESIAN_POINT( '', ( 2.49000000000000, 3.50000000000000, 4.98000000000000 ) );
#422 = VECTOR( '', #488, 1000.00000000000 );
#423 = CARTESIAN_POINT( '', ( -2.49000000000000, 3.50000000000000, -9.12055703664991E-016 ) );
#424 = VECTOR( '', #489, 1000.00000000000 );
#425 = COLOUR_RGB( '', 0.505882382400000, 0.529411792800000, 0.549019634700000 );
#426 = COLOUR_RGB( '', 0.505882382400000, 0.529411792800000, 0.549019634700000 );
#427 = CARTESIAN_POINT( '', ( -2.49000000000000, -3.50000000000000, 4.48074566965906 ) );
#428 = CARTESIAN_POINT( '', ( 2.49000000000000, -3.50000000000000, 4.48074566965906 ) );
#429 = AXIS2_PLACEMENT_3D( '', #490, #491, #492 );
#430 = CARTESIAN_POINT( '', ( 2.49000000000000, -3.00000000000000, 4.48074566965906 ) );
#431 = VECTOR( '', #493, 1000.00000000000 );
#432 = CARTESIAN_POINT( '', ( -2.49000000000000, -3.00000000000000, 4.48074566965906 ) );
#433 = VECTOR( '', #494, 1000.00000000000 );
#434 = COLOUR_RGB( '', 0.505882382400000, 0.529411792800000, 0.549019634700000 );
#435 = CARTESIAN_POINT( '', ( -2.49000000000000, 3.00000000000000, 4.48074566965906 ) );
#436 = CARTESIAN_POINT( '', ( -2.49000000000000, 3.00000000000000, 4.98000000000000 ) );
#437 = CARTESIAN_POINT( '', ( -2.49000000000000, 3.00000000000000, 4.48074566965906 ) );
#438 = VECTOR( '', #495, 1000.00000000000 );
#439 = CARTESIAN_POINT( '', ( 2.49000000000000, 3.00000000000000, 4.98000000000000 ) );
#440 = CARTESIAN_POINT( '', ( -2.49000000000000, 3.00000000000000, 4.98000000000000 ) );
#441 = VECTOR( '', #496, 1000.00000000000 );
#442 = CARTESIAN_POINT( '', ( 2.49000000000000, 3.00000000000000, 4.48074566965906 ) );
#443 = CARTESIAN_POINT( '', ( 2.49000000000000, 3.00000000000000, 4.98000000000000 ) );
#444 = VECTOR( '', #497, 1000.00000000000 );
#445 = AXIS2_PLACEMENT_3D( '', #498, #499, #500 );
#446 = COLOUR_RGB( '', 0.505882382400000, 0.529411792800000, 0.549019634700000 );
#447 = CARTESIAN_POINT( '', ( -2.49000000000000, 3.00000000000000, 4.48074566965906 ) );
#448 = VECTOR( '', #501, 1000.00000000000 );
#449 = CARTESIAN_POINT( '', ( 2.49000000000000, 3.00000000000000, 4.48074566965906 ) );
#450 = VECTOR( '', #502, 1000.00000000000 );
#451 = COLOUR_RGB( '', 0.505882382400000, 0.529411792800000, 0.549019634700000 );
#452 = CARTESIAN_POINT( '', ( 2.49000000000000, -3.50000000000000, 4.98000000000000 ) );
#453 = VECTOR( '', #503, 1000.00000000000 );
#454 = CARTESIAN_POINT( '', ( -2.49000000000000, -3.50000000000000, 4.98000000000000 ) );
#455 = VECTOR( '', #504, 1000.00000000000 );
#456 = COLOUR_RGB( '', 0.505882382400000, 0.529411792800000, 0.549019634700000 );
#457 = CARTESIAN_POINT( '', ( 3.69843333342503E-016, -3.50000000000000, 3.57950000000000 ) );
#458 = AXIS2_PLACEMENT_3D( '', #505, #506, #507 );
#459 = CARTESIAN_POINT( '', ( 2.49000000000000, -3.50000000000000, 4.98000000000000 ) );
#460 = VECTOR( '', #508, 1000.00000000000 );
#461 = CARTESIAN_POINT( '', ( -2.49000000000000, -3.50000000000000, -9.12055703664991E-016 ) );
#462 = VECTOR( '', #509, 1000.00000000000 );
#463 = COLOUR_RGB( '', 0.505882382400000, 0.529411792800000, 0.549019634700000 );
#464 = COLOUR_RGB( '', 0.505882382400000, 0.529411792800000, 0.549019634700000 );
#465 = COLOUR_RGB( '', 0.505882382400000, 0.529411792800000, 0.549019634700000 );
#466 = CARTESIAN_POINT( '', ( 3.69843333342503E-016, 3.13000000000000, 1.98000000000000 ) );
#467 = DIRECTION( '', ( 0.000000000000000, 1.00000000000000, 0.000000000000000 ) );
#468 = DIRECTION( '', ( 0.000000000000000, 0.000000000000000, 1.00000000000000 ) );
#469 = CARTESIAN_POINT( '', ( 3.69843333342503E-016, -3.13000000000000, 1.98000000000000 ) );
#470 = DIRECTION( '', ( 0.000000000000000, 1.00000000000000, 0.000000000000000 ) );
#471 = DIRECTION( '', ( 0.000000000000000, 0.000000000000000, 1.00000000000000 ) );
#472 = DIRECTION( '', ( -1.00000000000000, 0.000000000000000, -1.22464679914735E-016 ) );
#473 = DIRECTION( '', ( 0.000000000000000, 1.00000000000000, 0.000000000000000 ) );
#474 = DIRECTION( '', ( -1.00000000000000, 0.000000000000000, -1.22464679914735E-016 ) );
#475 = DIRECTION( '', ( 0.000000000000000, 1.00000000000000, 0.000000000000000 ) );
#476 = DIRECTION( '', ( -1.00000000000000, 0.000000000000000, 0.000000000000000 ) );
#477 = DIRECTION( '', ( 0.000000000000000, 0.000000000000000, -1.00000000000000 ) );
#478 = CARTESIAN_POINT( '', ( 0.000000000000000, -3.00000000000000, 54.4187061806771 ) );
#479 = DIRECTION( '', ( 0.000000000000000, -1.00000000000000, 0.000000000000000 ) );
#480 = DIRECTION( '', ( 1.00000000000000, 0.000000000000000, 0.000000000000000 ) );
#481 = DIRECTION( '', ( -8.68657200625666E-016, 0.000000000000000, 1.00000000000000 ) );
#482 = CARTESIAN_POINT( '', ( 3.69843333342503E-016, 3.50000000000000, 1.98000000000000 ) );
#483 = DIRECTION( '', ( 0.000000000000000, 1.00000000000000, 0.000000000000000 ) );
#484 = DIRECTION( '', ( 0.000000000000000, 0.000000000000000, 1.00000000000000 ) );
#485 = CARTESIAN_POINT( '', ( 0.000000000000000, 3.50000000000000, 54.4187061806771 ) );
#486 = DIRECTION( '', ( -0.000000000000000, 1.00000000000000, 0.000000000000000 ) );
#487 = DIRECTION( '', ( 1.00000000000000, 0.000000000000000, 0.000000000000000 ) );
#488 = DIRECTION( '', ( 0.000000000000000, 0.000000000000000, -1.00000000000000 ) );
#489 = DIRECTION( '', ( 0.000000000000000, 0.000000000000000, 1.00000000000000 ) );
#490 = CARTESIAN_POINT( '', ( 0.000000000000000, -3.50000000000000, 54.4187061806771 ) );
#491 = DIRECTION( '', ( 0.000000000000000, -1.00000000000000, 0.000000000000000 ) );
#492 = DIRECTION( '', ( 1.00000000000000, 0.000000000000000, 0.000000000000000 ) );
#493 = DIRECTION( '', ( 0.000000000000000, -1.00000000000000, 0.000000000000000 ) );
#494 = DIRECTION( '', ( 0.000000000000000, -1.00000000000000, 0.000000000000000 ) );
#495 = DIRECTION( '', ( 0.000000000000000, 0.000000000000000, 1.00000000000000 ) );
#496 = DIRECTION( '', ( 1.00000000000000, 0.000000000000000, 0.000000000000000 ) );
#497 = DIRECTION( '', ( 8.68657200625666E-016, 0.000000000000000, -1.00000000000000 ) );
#498 = CARTESIAN_POINT( '', ( 0.000000000000000, 3.00000000000000, 54.4187061806771 ) );
#499 = DIRECTION( '', ( -0.000000000000000, 1.00000000000000, 0.000000000000000 ) );
#500 = DIRECTION( '', ( 1.00000000000000, 0.000000000000000, 0.000000000000000 ) );
#501 = DIRECTION( '', ( 0.000000000000000, 1.00000000000000, 0.000000000000000 ) );
#502 = DIRECTION( '', ( 0.000000000000000, 1.00000000000000, 0.000000000000000 ) );
#503 = DIRECTION( '', ( 0.000000000000000, 1.00000000000000, 0.000000000000000 ) );
#504 = DIRECTION( '', ( 0.000000000000000, 1.00000000000000, 0.000000000000000 ) );
#505 = CARTESIAN_POINT( '', ( 3.69843333342503E-016, -3.50000000000000, 1.98000000000000 ) );
#506 = DIRECTION( '', ( 0.000000000000000, 1.00000000000000, 0.000000000000000 ) );
#507 = DIRECTION( '', ( 0.000000000000000, 0.000000000000000, 1.00000000000000 ) );
#508 = DIRECTION( '', ( 0.000000000000000, 0.000000000000000, -1.00000000000000 ) );
#509 = DIRECTION( '', ( 0.000000000000000, 0.000000000000000, 1.00000000000000 ) );
ENDSEC;
END-ISO-10303-21;
