C                                                                       S      1
1H,,1H;,10HSolid Edge,20H74479299xxx_1210.igs,27HBy Siemens PLM IncorporG      1
ated,26HXPlus GENERIC/IGES 17.0.49,32,38, 6,308,15,7HUnknown,1.000,2,2HMG      2
M,1,1.000,15H20151118.105613,1.0e-005,0.00,6HAuthor,5HTitle,11,0,15H2015G      3
1118.105613;                                                            G      4
     314       1       0       1       0       0       0       000010001D      1
     314       1       0       2       0       0       0               0D      2
     128       3       0       1       0       0       0       000010001D      3
     128       1       0       2       0       0       0               0D      4
     126       5       0       1       0       0       0       000010001D      5
     126       1       0       2       0       0       0               0D      6
     502       7       0       1       0       0       0       000010001D      7
     502       1       0       2       1       0       0               0D      8
     126       9       0       1       0       0       0       000010001D      9
     126       1       0       2       0       0       0               0D     10
     126      11       0       1       0       0       0       000010001D     11
     126       1       0       2       0       0       0               0D     12
     126      13       0       1       0       0       0       000010001D     13
     126       1       0       2       0       0       0               0D     14
     126      15       0       1       0       0       0       000010001D     15
     126       1       0       2       0       0       0               0D     16
     126      17       0       1       0       0       0       000010001D     17
     126       1       0       2       0       0       0               0D     18
     126      19       0       1       0       0       0       000010001D     19
     126       1       0       2       0       0       0               0D     20
     126      21       0       1       0       0       0       000010001D     21
     126       1       0       2       0       0       0               0D     22
     126      23       0       1       0       0       0       000010001D     23
     126       1       0       2       0       0       0               0D     24
     126      25       0       1       0       0       0       000010001D     25
     126       1       0       2       0       0       0               0D     26
     126      27       0       1       0       0       0       000010001D     27
     126       1       0       2       0       0       0               0D     28
     126      29       0       1       0       0       0       000010001D     29
     126       1       0       2       0       0       0               0D     30
     504      31       0       1       0       0       0       000010001D     31
     504       1       0       3       1       0       0               0D     32
     508      34       0       1       0       0       0       000010001D     33
     508       1       0       1       1       0       0               0D     34
     510      35       0       1       0       0       0       000010001D     35
     510       1      -1       1       1       0       0               0D     36
     314      36       0       1       0       0       0       000010001D     37
     314       1       0       2       0       0       0               0D     38
     128      38       0       1       0       0       0       000010001D     39
     128       1       0       2       0       0       0               0D     40
     508      40       0       1       0       0       0       000010001D     41
     508       1       0       1       1       0       0               0D     42
     510      41       0       1       0       0       0       000010001D     43
     510       1     -37       1       1       0       0               0D     44
     314      42       0       1       0       0       0       000010001D     45
     314       1       0       2       0       0       0               0D     46
     128      44       0       1       0       0       0       000010001D     47
     128       1       0       2       0       0       0               0D     48
     508      46       0       1       0       0       0       000010001D     49
     508       1       0       1       1       0       0               0D     50
     510      47       0       1       0       0       0       000010001D     51
     510       1     -45       1       1       0       0               0D     52
     314      48       0       1       0       0       0       000010001D     53
     314       1       0       2       0       0       0               0D     54
     128      50       0       1       0       0       0       000010001D     55
     128       1       0       2       0       0       0               0D     56
     508      52       0       1       0       0       0       000010001D     57
     508       1       0       1       1       0       0               0D     58
     510      53       0       1       0       0       0       000010001D     59
     510       1     -53       1       1       0       0               0D     60
     314      54       0       1       0       0       0       000010001D     61
     314       1       0       2       0       0       0               0D     62
     128      56       0       1       0       0       0       000010001D     63
     128       1       0       2       0       0       0               0D     64
     508      58       0       1       0       0       0       000010001D     65
     508       1       0       1       1       0       0               0D     66
     510      59       0       1       0       0       0       000010001D     67
     510       1     -61       1       1       0       0               0D     68
     314      60       0       1       0       0       0       000010001D     69
     314       1       0       2       0       0       0               0D     70
     128      62       0       1       0       0       0       000010001D     71
     128       1       0       2       0       0       0               0D     72
     508      64       0       1       0       0       0       000010001D     73
     508       1       0       1       1       0       0               0D     74
     510      65       0       1       0       0       0       000010001D     75
     510       1     -69       1       1       0       0               0D     76
     514      66       0       1       0       0       0       000010001D     77
     514       1       0       1       1       0       0               0D     78
     186      67       0       1       0       0       0       000010001D     79
     186       1       0       1       0       0       0 Ferrite       0D     80
     308      68       0       1       0       0       0       000010001D     81
     308       1       0       1       0       0       0               0D     82
     408      69       0       1       0       0       0       000010001D     83
     408       1       0       1       0       0       0               0D     84
     124      70       0       1       0       0       0       000010001D     85
     124       1       0       1       0       0       0               0D     86
     314      71       0       1       0       0       0       000010001D     87
     314       1       0       2       0       0       0               0D     88
     128      73       0       1       0       0       0       000010001D     89
     128       1       0       2       0       0       0               0D     90
     126      75       0       1       0       0       0       000010001D     91
     126       1       0       2       0       0       0               0D     92
     502      77       0       1       0       0       0       000010001D     93
     502       1       0       2       1       0       0               0D     94
     126      79       0       1       0       0       0       000010001D     95
     126       1       0       2       0       0       0               0D     96
     126      81       0       1       0       0       0       000010001D     97
     126       1       0       2       0       0       0               0D     98
     126      83       0       1       0       0       0       000010001D     99
     126       1       0       2       0       0       0               0D    100
     126      85       0       1       0       0       0       000010001D    101
     126       1       0       2       0       0       0               0D    102
     126      87       0       1       0       0       0       000010001D    103
     126       1       0       2       0       0       0               0D    104
     126      89       0       1       0       0       0       000010001D    105
     126       1       0       2       0       0       0               0D    106
     126      91       0       1       0       0       0       000010001D    107
     126       1       0       2       0       0       0               0D    108
     126      93       0       1       0       0       0       000010001D    109
     126       1       0       2       0       0       0               0D    110
     126      95       0       1       0       0       0       000010001D    111
     126       1       0       2       0       0       0               0D    112
     126      97       0       1       0       0       0       000010001D    113
     126       1       0       2       0       0       0               0D    114
     126      99       0       1       0       0       0       000010001D    115
     126       1       0       2       0       0       0               0D    116
     504     101       0       1       0       0       0       000010001D    117
     504       1       0       3       1       0       0               0D    118
     508     104       0       1       0       0       0       000010001D    119
     508       1       0       1       1       0       0               0D    120
     510     105       0       1       0       0       0       000010001D    121
     510       1     -87       1       1       0       0               0D    122
     314     106       0       1       0       0       0       000010001D    123
     314       1       0       2       0       0       0               0D    124
     128     108       0       1       0       0       0       000010001D    125
     128       1       0       2       0       0       0               0D    126
     508     110       0       1       0       0       0       000010001D    127
     508       1       0       1       1       0       0               0D    128
     510     111       0       1       0       0       0       000010001D    129
     510       1    -123       1       1       0       0               0D    130
     314     112       0       1       0       0       0       000010001D    131
     314       1       0       2       0       0       0               0D    132
     128     114       0       1       0       0       0       000010001D    133
     128       1       0       2       0       0       0               0D    134
     508     116       0       1       0       0       0       000010001D    135
     508       1       0       1       1       0       0               0D    136
     510     117       0       1       0       0       0       000010001D    137
     510       1    -131       1       1       0       0               0D    138
     314     118       0       1       0       0       0       000010001D    139
     314       1       0       2       0       0       0               0D    140
     128     120       0       1       0       0       0       000010001D    141
     128       1       0       2       0       0       0               0D    142
     508     122       0       1       0       0       0       000010001D    143
     508       1       0       1       1       0       0               0D    144
     510     123       0       1       0       0       0       000010001D    145
     510       1    -139       1       1       0       0               0D    146
     314     124       0       1       0       0       0       000010001D    147
     314       1       0       2       0       0       0               0D    148
     128     126       0       1       0       0       0       000010001D    149
     128       1       0       2       0       0       0               0D    150
     508     128       0       1       0       0       0       000010001D    151
     508       1       0       1       1       0       0               0D    152
     510     129       0       1       0       0       0       000010001D    153
     510       1    -147       1       1       0       0               0D    154
     314     130       0       1       0       0       0       000010001D    155
     314       1       0       2       0       0       0               0D    156
     128     132       0       1       0       0       0       000010001D    157
     128       1       0       3       0       0       0               0D    158
     508     135       0       1       0       0       0       000010001D    159
     508       1       0       1       1       0       0               0D    160
     510     136       0       1       0       0       0       000010001D    161
     510       1    -155       1       1       0       0               0D    162
     514     137       0       1       0       0       0       000010001D    163
     514       1       0       1       1       0       0               0D    164
     186     138       0       1       0       0       0       000010001D    165
     186       1       0       1       0       0       0 Contact       0D    166
     308     139       0       1       0       0       0       000010001D    167
     308       1       0       1       0       0       0               0D    168
     408     140       0       1       0       0      85       000010001D    169
     408       1       0       1       0       0       0               0D    170
     124     141       0       1       0       0       0       000010001D    171
     124       1       0       1       0       0       0               0D    172
     408     142       0       1       0       0     171       000010001D    173
     408       1       0       1       0       0       0               0D    174
     308     143       0       1       0       0       0       000010001D    175
     308       1       0       1       0       0       0               0D    176
     408     144       0       1       0       0       0       000000001D    177
     408       1       0       1       0       0       0               0D    178
314,11.9999997317791,11.9999997317791,11.9999997317791,10HMixedC       1P      1
olor;                                                                  1P      2
128,1,1,1,1,0,0,1,0,0,0.,0.,1.,1.,0.,0.,1.,1.,1.,1.,1.,1.,-1.25,       3P      3
1.,0.6,-1.25,1.,-0.6,1.25,1.,0.6,1.25,1.,-0.6,0.,1.,0.,1.;             3P      4
126,1,1,0,0,1,0,0.,0.,1.,1.,1.,1.,-1.25,1.,0.6,-1.25,1.,-0.6,0.,       5P      5
1.;                                                                    5P      6
502,8,1.25,1.,-0.6,-1.25,-1.,-0.6,1.25,-1.,0.6,-1.25,1.,-0.6,          7P      7
-1.25,-1.,0.6,1.25,1.,0.6,-1.25,1.,0.6,1.25,-1.,-0.6;                  7P      8
126,1,1,0,0,1,0,0.,0.,1.,1.,1.,1.,-1.25,-1.,0.6,-1.25,-1.,-0.6,        9P      9
0.,1.;                                                                 9P     10
126,1,1,0,0,1,0,0.,0.,1.,1.,1.,1.,1.25,-1.,0.6,1.25,-1.,-0.6,0.,      11P     11
1.;                                                                   11P     12
126,1,1,0,0,1,0,0.,0.,1.,1.,1.,1.,1.25,1.,0.6,1.25,1.,-0.6,0.,        13P     13
1.;                                                                   13P     14
126,1,1,0,0,1,0,0.,0.,1.,1.,1.,1.,1.25,-1.,0.6,1.25,1.,0.6,0.,        15P     15
1.;                                                                   15P     16
126,1,1,0,0,1,0,0.,0.,1.,1.,1.,1.,-1.25,-1.,0.6,1.25,-1.,0.6,0.,      17P     17
1.;                                                                   17P     18
126,1,1,0,0,1,0,0.,0.,1.,1.,1.,1.,-1.25,1.,0.6,-1.25,-1.,0.6,0.,      19P     19
1.;                                                                   19P     20
126,1,1,0,0,1,0,0.,0.,1.,1.,1.,1.,1.25,1.,0.6,-1.25,1.,0.6,0.,        21P     21
1.;                                                                   21P     22
126,1,1,0,0,1,0,0.,0.,1.,1.,1.,1.,1.25,-1.,-0.6,1.25,1.,-0.6,0.,      23P     23
1.;                                                                   23P     24
126,1,1,0,0,1,0,0.,0.,1.,1.,1.,1.,-1.25,-1.,-0.6,1.25,-1.,-0.6,       25P     25
0.,1.;                                                                25P     26
126,1,1,0,0,1,0,0.,0.,1.,1.,1.,1.,-1.25,1.,-0.6,-1.25,-1.,-0.6,       27P     27
0.,1.;                                                                27P     28
126,1,1,0,0,1,0,0.,0.,1.,1.,1.,1.,1.25,1.,-0.6,-1.25,1.,-0.6,0.,      29P     29
1.;                                                                   29P     30
504,12,5,7,7,7,4,9,7,5,7,2,11,7,3,7,8,13,7,6,7,1,15,7,3,7,6,17,       31P     31
7,5,7,3,19,7,7,7,5,21,7,6,7,7,23,7,8,7,1,25,7,2,7,8,27,7,4,7,2,       31P     32
29,7,1,7,4;                                                           31P     33
508,4,0,31,12,1,0,0,31,1,0,0,0,31,8,0,0,0,31,4,1,0;                   33P     34
510,3,1,1,33;                                                         35P     35
314,11.9999997317791,11.9999997317791,11.9999997317791,10HMixedC      37P     36
olor;                                                                 37P     37
128,1,1,1,1,0,0,1,0,0,0.,0.,1.,1.,0.,0.,1.,1.,1.,1.,1.,1.,-1.25,      39P     38
-1.,-0.6,-1.25,1.,-0.6,-1.25,-1.,0.6,-1.25,1.,0.6,0.,1.,0.,1.;        39P     39
508,4,0,31,11,1,0,0,31,2,0,0,0,31,7,0,0,0,31,1,1,0;                   41P     40
510,39,1,1,41;                                                        43P     41
314,11.9999997317791,11.9999997317791,11.9999997317791,10HMixedC      45P     42
olor;                                                                 45P     43
128,1,1,1,1,0,0,1,0,0,0.,0.,1.,1.,0.,0.,1.,1.,1.,1.,1.,1.,1.25,       47P     44
-1.,-0.6,-1.25,-1.,-0.6,1.25,-1.,0.6,-1.25,-1.,0.6,0.,1.,0.,1.;       47P     45
508,4,0,31,10,1,0,0,31,3,0,0,0,31,6,0,0,0,31,2,1,0;                   49P     46
510,47,1,1,49;                                                        51P     47
314,11.9999997317791,11.9999997317791,11.9999997317791,10HMixedC      53P     48
olor;                                                                 53P     49
128,1,1,1,1,0,0,1,0,0,0.,0.,1.,1.,0.,0.,1.,1.,1.,1.,1.,1.,1.25,       55P     50
1.,-0.6,1.25,-1.,-0.6,1.25,1.,0.6,1.25,-1.,0.6,0.,1.,0.,1.;           55P     51
508,4,0,31,9,1,0,0,31,4,0,0,0,31,5,0,0,0,31,3,1,0;                    57P     52
510,55,1,1,57;                                                        59P     53
314,11.9999997317791,11.9999997317791,11.9999997317791,10HMixedC      61P     54
olor;                                                                 61P     55
128,1,1,1,1,0,0,1,0,0,0.,0.,1.,1.,0.,0.,1.,1.,1.,1.,1.,1.,-1.25,      63P     56
-1.,-0.6,1.25,-1.,-0.6,-1.25,1.,-0.6,1.25,1.,-0.6,0.,1.,0.,1.;        63P     57
508,4,0,31,12,0,0,0,31,9,0,0,0,31,10,0,0,0,31,11,0,0;                 65P     58
510,63,1,1,65;                                                        67P     59
314,11.9999997317791,11.9999997317791,11.9999997317791,10HMixedC      69P     60
olor;                                                                 69P     61
128,1,1,1,1,0,0,1,0,0,0.,0.,1.,1.,0.,0.,1.,1.,1.,1.,1.,1.,-1.25,      71P     62
-1.,0.6,1.25,-1.,0.6,-1.25,1.,0.6,1.25,1.,0.6,0.,1.,0.,1.;            71P     63
508,4,0,31,8,1,0,0,31,7,1,0,0,31,6,1,0,0,31,5,1,0;                    73P     64
510,71,1,1,73;                                                        75P     65
514,6,35,0,43,0,51,0,59,0,67,0,75,1;                                  77P     66
186,77,1,0;                                                           79P     67
308,0,7HDEFAULT,1,79;                                                 81P     68
408,81,0.,0.,0.,1.;                                                   83P     69
124,1.,0.,0.,0.00000000000001,0.,1.,0.,-1.,0.,0.,1.,0.;               85P     70
314,69.9999988079071,69.9999988079071,69.9999988079071,10HMixedC      87P     71
olor;                                                                 87P     72
128,1,1,1,1,0,0,1,0,0,0.,0.,1.,1.,0.,0.,1.,1.,1.,1.,1.,1.,-1.25,      89P     73
-0.6,0.6,-1.25,-0.6,-0.6,-1.25,0.,0.6,-1.25,0.,-0.6,0.,1.,0.,1.;      89P     74
126,1,1,0,0,1,0,0.,0.,1.,1.,1.,1.,-1.25,-0.6,-0.6,-1.25,0.,-0.6,      91P     75
0.,1.;                                                                91P     76
502,8,1.25,-0.6,0.6,-1.25,-0.6,0.6,-1.25,-0.6,-0.6,1.25,0.,-0.6,      93P     77
1.25,-0.6,-0.6,-1.25,0.,-0.6,1.25,0.,0.6,-1.25,0.,0.6;                93P     78
126,1,1,0,0,1,0,0.,0.,1.,1.,1.,1.,1.25,-0.6,-0.6,1.25,0.,-0.6,        95P     79
0.,1.;                                                                95P     80
126,1,1,0,0,1,0,0.,0.,1.,1.,1.,1.,1.25,-0.6,0.6,1.25,0.,0.6,0.,       97P     81
1.;                                                                   97P     82
126,1,1,0,0,1,0,0.,0.,1.,1.,1.,1.,-1.25,-0.6,0.6,-1.25,0.,0.6,        99P     83
0.,1.;                                                                99P     84
126,1,1,0,0,1,0,0.,0.,1.,1.,1.,1.,1.25,-0.6,0.6,-1.25,-0.6,0.6,      101P     85
0.,1.;                                                               101P     86
126,1,1,0,0,1,0,0.,0.,1.,1.,1.,1.,1.25,-0.6,-0.6,1.25,-0.6,0.6,      103P     87
0.,1.;                                                               103P     88
126,1,1,0,0,1,0,0.,0.,1.,1.,1.,1.,-1.25,-0.6,-0.6,1.25,-0.6,         105P     89
-0.6,0.,1.;                                                          105P     90
126,1,1,0,0,1,0,0.,0.,1.,1.,1.,1.,-1.25,-0.6,0.6,-1.25,-0.6,         107P     91
-0.6,0.,1.;                                                          107P     92
126,1,1,0,0,1,0,0.,0.,1.,1.,1.,1.,1.25,0.,0.6,-1.25,0.,0.6,0.,       109P     93
1.;                                                                  109P     94
126,1,1,0,0,1,0,0.,0.,1.,1.,1.,1.,1.25,0.,-0.6,1.25,0.,0.6,0.,       111P     95
1.;                                                                  111P     96
126,1,1,0,0,1,0,0.,0.,1.,1.,1.,1.,-1.25,0.,-0.6,1.25,0.,-0.6,0.,     113P     97
1.;                                                                  113P     98
126,1,1,0,0,1,0,0.,0.,1.,1.,1.,1.,-1.25,0.,0.6,-1.25,0.,-0.6,0.,     115P     99
1.;                                                                  115P    100
504,12,91,93,3,93,6,95,93,5,93,4,97,93,1,93,7,99,93,2,93,8,101,      117P    101
93,1,93,2,103,93,5,93,1,105,93,3,93,5,107,93,2,93,3,109,93,7,93,     117P    102
8,111,93,4,93,7,113,93,6,93,4,115,93,8,93,6;                         117P    103
508,4,0,117,12,1,0,0,117,1,0,0,0,117,8,0,0,0,117,4,1,0;              119P    104
510,89,1,1,119;                                                      121P    105
314,69.9999988079071,69.9999988079071,69.9999988079071,10HMixedC     123P    106
olor;                                                                123P    107
128,1,1,1,1,0,0,1,0,0,0.,0.,1.,1.,0.,0.,1.,1.,1.,1.,1.,1.,-1.25,     125P    108
-0.6,-0.6,1.25,-0.6,-0.6,-1.25,0.,-0.6,1.25,0.,-0.6,0.,1.,0.,1.;     125P    109
508,4,0,117,11,1,0,0,117,2,0,0,0,117,7,0,0,0,117,1,1,0;              127P    110
510,125,1,1,127;                                                     129P    111
314,69.9999988079071,69.9999988079071,69.9999988079071,10HMixedC     131P    112
olor;                                                                131P    113
128,1,1,1,1,0,0,1,0,0,0.,0.,1.,1.,0.,0.,1.,1.,1.,1.,1.,1.,1.25,      133P    114
-0.6,-0.6,1.25,-0.6,0.6,1.25,0.,-0.6,1.25,0.,0.6,0.,1.,0.,1.;        133P    115
508,4,0,117,10,1,0,0,117,3,0,0,0,117,6,0,0,0,117,2,1,0;              135P    116
510,133,1,1,135;                                                     137P    117
314,69.9999988079071,69.9999988079071,69.9999988079071,10HMixedC     139P    118
olor;                                                                139P    119
128,1,1,1,1,0,0,1,0,0,0.,0.,1.,1.,0.,0.,1.,1.,1.,1.,1.,1.,1.25,      141P    120
-0.6,0.6,-1.25,-0.6,0.6,1.25,0.,0.6,-1.25,0.,0.6,0.,1.,0.,1.;        141P    121
508,4,0,117,9,1,0,0,117,4,0,0,0,117,5,0,0,0,117,3,1,0;               143P    122
510,141,1,1,143;                                                     145P    123
314,69.9999988079071,69.9999988079071,69.9999988079071,10HMixedC     147P    124
olor;                                                                147P    125
128,1,1,1,1,0,0,1,0,0,0.,0.,1.,1.,0.,0.,1.,1.,1.,1.,1.,1.,-1.25,     149P    126
0.,0.6,-1.25,0.,-0.6,1.25,0.,0.6,1.25,0.,-0.6,0.,1.,0.,1.;           149P    127
508,4,0,117,12,0,0,0,117,9,0,0,0,117,10,0,0,0,117,11,0,0;            151P    128
510,149,1,1,151;                                                     153P    129
314,69.9999988079071,69.9999988079071,69.9999988079071,10HMixedC     155P    130
olor;                                                                155P    131
128,1,1,1,1,0,0,1,0,0,0.,0.,1.,1.,0.,0.,1.,1.,1.,1.,1.,1.,-1.25,     157P    132
-0.6,0.6,-1.25,-0.6,-0.6,1.25,-0.6,0.6,1.25,-0.6,-0.6,0.,1.,0.,      157P    133
1.;                                                                  157P    134
508,4,0,117,8,1,0,0,117,7,1,0,0,117,6,1,0,0,117,5,1,0;               159P    135
510,157,1,1,159;                                                     161P    136
514,6,121,0,129,0,137,0,145,0,153,0,161,1;                           163P    137
186,163,1,0;                                                         165P    138
308,0,7HDEFAULT,1,165;                                               167P    139
408,167,0.,0.,0.,1.;                                                 169P    140
124,1.,0.,-0.,0.,0.,-1.,0.,1.,-0.,0.,-1.,0.;                         171P    141
408,167,0.,0.,0.,1.;                                                 173P    142
308,1,7HDEFAULT,3,83,169,173;                                        175P    143
408,175,0.,0.,0.,1.;                                                 177P    144
S      1G      4D    178P    144                                        T      1
