ISO-10303-21;
HEADER;
FILE_DESCRIPTION( ( 'Unknown' ), '1' );
FILE_NAME( 'I:/User_Groups_Only/17_EMC_Product_&_Development/Article_Master/Ind_Inductors_Power/IndPMCI/Master_Data/01_CAD_drawing/1_Drawing/1008_74479288xxx/Released_Data/74479288xxx_1008.stp', 'Unknown', ( 'Unknown' ), ( 'Unknown' ), 'PSStep 17.0.49', 'Unknown', '  ' );
FILE_SCHEMA( ( 'AUTOMOTIVE_DESIGN { 1 0 10303 214 1 1 1 1 }' ) );
ENDSEC;
DATA;
#1 = PRODUCT_DEFINITION_CONTEXT( '', #19, 'design' );
#2 = APPLICATION_PROTOCOL_DEFINITION( 'international standard', 'automotive_design', 2001, #19 );
#3 = PRODUCT_CATEGORY_RELATIONSHIP( 'NONE', 'NONE', #20, #21 );
#4 = SHAPE_DEFINITION_REPRESENTATION( #22, #23 );
#5 = PRODUCT_CATEGORY_RELATIONSHIP( 'NONE', 'NONE', #20, #24 );
#6 = CONTEXT_DEPENDENT_SHAPE_REPRESENTATION( #25, #26 );
#7 = SHAPE_DEFINITION_REPRESENTATION( #27, #28 );
#8 = SHAPE_REPRESENTATION_RELATIONSHIP( 'NONE', 'NONE', #28, #29 );
#9 = PRODUCT_CATEGORY_RELATIONSHIP( 'NONE', 'NONE', #20, #30 );
#10 = CONTEXT_DEPENDENT_SHAPE_REPRESENTATION( #31, #32 );
#11 = SHAPE_DEFINITION_REPRESENTATION( #33, #34 );
#12 = SHAPE_REPRESENTATION_RELATIONSHIP( 'NONE', 'NONE', #34, #35 );
#13 = CONTEXT_DEPENDENT_SHAPE_REPRESENTATION( #36, #37 );
#14 = MECHANICAL_DESIGN_GEOMETRIC_PRESENTATION_REPRESENTATION( ' ', ( #38, #39, #40, #41, #42, #43, #44, #45, #46, #47, #48, #49 ), #15 );
#15 =  ( GEOMETRIC_REPRESENTATION_CONTEXT( 3 )GLOBAL_UNCERTAINTY_ASSIGNED_CONTEXT( ( #52 ) )GLOBAL_UNIT_ASSIGNED_CONTEXT( ( #54, #55, #56 ) )REPRESENTATION_CONTEXT( 'NONE', 'WORKSPACE' ) );
#19 = APPLICATION_CONTEXT( 'core data for automotive mechanical design processes' );
#20 = PRODUCT_CATEGORY( 'part', 'NONE' );
#21 = PRODUCT_RELATED_PRODUCT_CATEGORY( 'detail', ' ', ( #58 ) );
#22 = PRODUCT_DEFINITION_SHAPE( 'NONE', 'NONE', #59 );
#23 = SHAPE_REPRESENTATION( 'Assem1', ( #60, #61, #62, #63 ), #64 );
#24 = PRODUCT_RELATED_PRODUCT_CATEGORY( 'detail', ' ', ( #65 ) );
#25 = ( REPRESENTATION_RELATIONSHIP( '', '', #28, #23 )REPRESENTATION_RELATIONSHIP_WITH_TRANSFORMATION( #68 )SHAPE_REPRESENTATION_RELATIONSHIP(  ) );
#26 = PRODUCT_DEFINITION_SHAPE( 'NAUO-PROD-DEF', 'NAUO-PROD-DEF', #70 );
#27 = PRODUCT_DEFINITION_SHAPE( 'NONE', 'NONE', #71 );
#28 = SHAPE_REPRESENTATION( 'Ferrite', ( #60 ), #64 );
#29 = ADVANCED_BREP_SHAPE_REPRESENTATION( 'Ferrite', ( #72 ), #15 );
#30 = PRODUCT_RELATED_PRODUCT_CATEGORY( 'detail', ' ', ( #73 ) );
#31 = ( REPRESENTATION_RELATIONSHIP( '', '', #34, #23 )REPRESENTATION_RELATIONSHIP_WITH_TRANSFORMATION( #76 )SHAPE_REPRESENTATION_RELATIONSHIP(  ) );
#32 = PRODUCT_DEFINITION_SHAPE( 'NAUO-PROD-DEF', 'NAUO-PROD-DEF', #78 );
#33 = PRODUCT_DEFINITION_SHAPE( 'NONE', 'NONE', #79 );
#34 = SHAPE_REPRESENTATION( 'Contact', ( #60 ), #64 );
#35 = ADVANCED_BREP_SHAPE_REPRESENTATION( 'Contact', ( #80 ), #15 );
#36 = ( REPRESENTATION_RELATIONSHIP( '', '', #34, #23 )REPRESENTATION_RELATIONSHIP_WITH_TRANSFORMATION( #83 )SHAPE_REPRESENTATION_RELATIONSHIP(  ) );
#37 = PRODUCT_DEFINITION_SHAPE( 'NAUO-PROD-DEF', 'NAUO-PROD-DEF', #85 );
#38 = STYLED_ITEM( '', ( #86 ), #87 );
#39 = STYLED_ITEM( '', ( #88 ), #89 );
#40 = STYLED_ITEM( '', ( #90 ), #91 );
#41 = STYLED_ITEM( '', ( #92 ), #93 );
#42 = STYLED_ITEM( '', ( #94 ), #95 );
#43 = STYLED_ITEM( '', ( #96 ), #97 );
#44 = STYLED_ITEM( '', ( #98 ), #99 );
#45 = STYLED_ITEM( '', ( #100 ), #101 );
#46 = STYLED_ITEM( '', ( #102 ), #103 );
#47 = STYLED_ITEM( '', ( #104 ), #105 );
#48 = STYLED_ITEM( '', ( #106 ), #107 );
#49 = STYLED_ITEM( '', ( #108 ), #109 );
#52 = UNCERTAINTY_MEASURE_WITH_UNIT( LENGTH_MEASURE( 0.00100000000000000 ), #54, '', '' );
#54 =  ( CONVERSION_BASED_UNIT( 'MILLIMETRE', #112 )LENGTH_UNIT(  )NAMED_UNIT( #115 ) );
#55 =  ( NAMED_UNIT( #117 )PLANE_ANGLE_UNIT(  )SI_UNIT( $, .RADIAN. ) );
#56 =  ( NAMED_UNIT( #117 )SI_UNIT( $, .STERADIAN. )SOLID_ANGLE_UNIT(  ) );
#58 = PRODUCT( 'Assem1', 'Assem1', 'PART-Assem1-DESC', ( #123 ) );
#59 = PRODUCT_DEFINITION( 'NONE', 'NONE', #124, #1 );
#60 = AXIS2_PLACEMENT_3D( '', #125, #126, #127 );
#61 = AXIS2_PLACEMENT_3D( '', #128, #129, #130 );
#62 = AXIS2_PLACEMENT_3D( '', #131, #132, #133 );
#63 = AXIS2_PLACEMENT_3D( '', #134, #135, #136 );
#64 =  ( GEOMETRIC_REPRESENTATION_CONTEXT( 3 )GLOBAL_UNCERTAINTY_ASSIGNED_CONTEXT( ( #139 ) )GLOBAL_UNIT_ASSIGNED_CONTEXT( ( #141, #142, #143 ) )REPRESENTATION_CONTEXT( 'NONE', 'WORKSPACE' ) );
#65 = PRODUCT( 'Ferrite', 'Ferrite', 'PART-Ferrite-DESC', ( #123 ) );
#68 = ITEM_DEFINED_TRANSFORMATION( '', '', #60, #61 );
#70 = NEXT_ASSEMBLY_USAGE_OCCURRENCE( 'NAUO1', 'Ferrite', 'Ferrite', #59, #71, $ );
#71 = PRODUCT_DEFINITION( 'Ferrite', 'Ferrite', #145, #1 );
#72 = MANIFOLD_SOLID_BREP( 'Ferrite', #146 );
#73 = PRODUCT( 'Contact', 'Contact', 'PART-Contact-DESC', ( #123 ) );
#76 = ITEM_DEFINED_TRANSFORMATION( '', '', #60, #62 );
#78 = NEXT_ASSEMBLY_USAGE_OCCURRENCE( 'NAUO2', 'Contact', 'Contact', #59, #79, $ );
#79 = PRODUCT_DEFINITION( 'Contact', 'Contact', #147, #1 );
#80 = MANIFOLD_SOLID_BREP( 'Contact', #148 );
#83 = ITEM_DEFINED_TRANSFORMATION( '', '', #60, #63 );
#85 = NEXT_ASSEMBLY_USAGE_OCCURRENCE( 'NAUO3', 'Contact', 'Contact', #59, #79, $ );
#86 = PRESENTATION_STYLE_ASSIGNMENT( ( #149 ) );
#87 = ADVANCED_FACE( '', ( #150 ), #151, .F. );
#88 = PRESENTATION_STYLE_ASSIGNMENT( ( #152 ) );
#89 = ADVANCED_FACE( '', ( #153 ), #154, .F. );
#90 = PRESENTATION_STYLE_ASSIGNMENT( ( #155 ) );
#91 = ADVANCED_FACE( '', ( #156 ), #157, .T. );
#92 = PRESENTATION_STYLE_ASSIGNMENT( ( #158 ) );
#93 = ADVANCED_FACE( '', ( #159 ), #160, .F. );
#94 = PRESENTATION_STYLE_ASSIGNMENT( ( #161 ) );
#95 = ADVANCED_FACE( '', ( #162 ), #163, .F. );
#96 = PRESENTATION_STYLE_ASSIGNMENT( ( #164 ) );
#97 = ADVANCED_FACE( '', ( #165 ), #166, .F. );
#98 = PRESENTATION_STYLE_ASSIGNMENT( ( #167 ) );
#99 = ADVANCED_FACE( '', ( #168 ), #169, .F. );
#100 = PRESENTATION_STYLE_ASSIGNMENT( ( #170 ) );
#101 = ADVANCED_FACE( '', ( #171 ), #172, .F. );
#102 = PRESENTATION_STYLE_ASSIGNMENT( ( #173 ) );
#103 = ADVANCED_FACE( '', ( #174 ), #175, .F. );
#104 = PRESENTATION_STYLE_ASSIGNMENT( ( #176 ) );
#105 = ADVANCED_FACE( '', ( #177 ), #178, .T. );
#106 = PRESENTATION_STYLE_ASSIGNMENT( ( #179 ) );
#107 = ADVANCED_FACE( '', ( #180 ), #181, .F. );
#108 = PRESENTATION_STYLE_ASSIGNMENT( ( #182 ) );
#109 = ADVANCED_FACE( '', ( #183 ), #184, .F. );
#112 = LENGTH_MEASURE_WITH_UNIT( LENGTH_MEASURE( 1.00000000000000 ), #185 );
#115 = DIMENSIONAL_EXPONENTS( 1.00000000000000, 0.000000000000000, 0.000000000000000, 0.000000000000000, 0.000000000000000, 0.000000000000000, 0.000000000000000 );
#117 = DIMENSIONAL_EXPONENTS( 0.000000000000000, 0.000000000000000, 0.000000000000000, 0.000000000000000, 0.000000000000000, 0.000000000000000, 0.000000000000000 );
#123 = PRODUCT_CONTEXT( '', #19, 'mechanical' );
#124 = PRODUCT_DEFINITION_FORMATION_WITH_SPECIFIED_SOURCE( ' ', 'NONE', #58, .NOT_KNOWN. );
#125 = CARTESIAN_POINT( '', ( 0.000000000000000, 0.000000000000000, 0.000000000000000 ) );
#126 = DIRECTION( '', ( 0.000000000000000, 0.000000000000000, 1.00000000000000 ) );
#127 = DIRECTION( '', ( 1.00000000000000, 0.000000000000000, 0.000000000000000 ) );
#128 = CARTESIAN_POINT( '', ( 0.000000000000000, 0.000000000000000, 0.000000000000000 ) );
#129 = DIRECTION( '', ( 0.000000000000000, 0.000000000000000, 1.00000000000000 ) );
#130 = DIRECTION( '', ( 1.00000000000000, 0.000000000000000, 0.000000000000000 ) );
#131 = CARTESIAN_POINT( '', ( 1.20161367835048E-014, -0.650000000000000, 1.38574590170803E-015 ) );
#132 = DIRECTION( '', ( 0.000000000000000, 0.000000000000000, 1.00000000000000 ) );
#133 = DIRECTION( '', ( 1.00000000000000, 0.000000000000000, 0.000000000000000 ) );
#134 = CARTESIAN_POINT( '', ( 1.08420217248550E-016, 0.650000000000000, 2.16840434497101E-016 ) );
#135 = DIRECTION( '', ( -5.55111512312578E-017, 0.000000000000000, -1.00000000000000 ) );
#136 = DIRECTION( '', ( 1.00000000000000, 0.000000000000000, -5.55111512312578E-017 ) );
#139 = UNCERTAINTY_MEASURE_WITH_UNIT( LENGTH_MEASURE( 0.00100000000000000 ), #141, '', '' );
#141 =  ( CONVERSION_BASED_UNIT( 'MILLIMETRE', #188 )LENGTH_UNIT(  )NAMED_UNIT( #191 ) );
#142 =  ( NAMED_UNIT( #193 )PLANE_ANGLE_UNIT(  )SI_UNIT( $, .RADIAN. ) );
#143 =  ( NAMED_UNIT( #193 )SI_UNIT( $, .STERADIAN. )SOLID_ANGLE_UNIT(  ) );
#145 = PRODUCT_DEFINITION_FORMATION_WITH_SPECIFIED_SOURCE( ' ', 'NONE', #65, .NOT_KNOWN. );
#146 = CLOSED_SHELL( '', ( #101, #99, #107, #93, #89, #91 ) );
#147 = PRODUCT_DEFINITION_FORMATION_WITH_SPECIFIED_SOURCE( ' ', 'NONE', #73, .NOT_KNOWN. );
#148 = CLOSED_SHELL( '', ( #95, #103, #109, #87, #97, #105 ) );
#149 = SURFACE_STYLE_USAGE( .BOTH., #199 );
#150 = FACE_OUTER_BOUND( '', #200, .T. );
#151 = PLANE( '', #201 );
#152 = SURFACE_STYLE_USAGE( .BOTH., #202 );
#153 = FACE_OUTER_BOUND( '', #203, .T. );
#154 = PLANE( '', #204 );
#155 = SURFACE_STYLE_USAGE( .BOTH., #205 );
#156 = FACE_OUTER_BOUND( '', #206, .T. );
#157 = PLANE( '', #207 );
#158 = SURFACE_STYLE_USAGE( .BOTH., #208 );
#159 = FACE_OUTER_BOUND( '', #209, .T. );
#160 = PLANE( '', #210 );
#161 = SURFACE_STYLE_USAGE( .BOTH., #211 );
#162 = FACE_OUTER_BOUND( '', #212, .T. );
#163 = PLANE( '', #213 );
#164 = SURFACE_STYLE_USAGE( .BOTH., #214 );
#165 = FACE_OUTER_BOUND( '', #215, .T. );
#166 = PLANE( '', #216 );
#167 = SURFACE_STYLE_USAGE( .BOTH., #217 );
#168 = FACE_OUTER_BOUND( '', #218, .T. );
#169 = PLANE( '', #219 );
#170 = SURFACE_STYLE_USAGE( .BOTH., #220 );
#171 = FACE_OUTER_BOUND( '', #221, .T. );
#172 = PLANE( '', #222 );
#173 = SURFACE_STYLE_USAGE( .BOTH., #223 );
#174 = FACE_OUTER_BOUND( '', #224, .T. );
#175 = PLANE( '', #225 );
#176 = SURFACE_STYLE_USAGE( .BOTH., #226 );
#177 = FACE_OUTER_BOUND( '', #227, .T. );
#178 = PLANE( '', #228 );
#179 = SURFACE_STYLE_USAGE( .BOTH., #229 );
#180 = FACE_OUTER_BOUND( '', #230, .T. );
#181 = PLANE( '', #231 );
#182 = SURFACE_STYLE_USAGE( .BOTH., #232 );
#183 = FACE_OUTER_BOUND( '', #233, .T. );
#184 = PLANE( '', #234 );
#185 =  ( LENGTH_UNIT(  )NAMED_UNIT( #115 )SI_UNIT( .MILLI., .METRE. ) );
#188 = LENGTH_MEASURE_WITH_UNIT( LENGTH_MEASURE( 1.00000000000000 ), #236 );
#191 = DIMENSIONAL_EXPONENTS( 1.00000000000000, 0.000000000000000, 0.000000000000000, 0.000000000000000, 0.000000000000000, 0.000000000000000, 0.000000000000000 );
#193 = DIMENSIONAL_EXPONENTS( 0.000000000000000, 0.000000000000000, 0.000000000000000, 0.000000000000000, 0.000000000000000, 0.000000000000000, 0.000000000000000 );
#199 = SURFACE_SIDE_STYLE( '', ( #237 ) );
#200 = EDGE_LOOP( '', ( #238, #239, #240, #241 ) );
#201 = AXIS2_PLACEMENT_3D( '', #242, #243, #244 );
#202 = SURFACE_SIDE_STYLE( '', ( #245 ) );
#203 = EDGE_LOOP( '', ( #246, #247, #248, #249 ) );
#204 = AXIS2_PLACEMENT_3D( '', #250, #251, #252 );
#205 = SURFACE_SIDE_STYLE( '', ( #253 ) );
#206 = EDGE_LOOP( '', ( #254, #255, #256, #257 ) );
#207 = AXIS2_PLACEMENT_3D( '', #258, #259, #260 );
#208 = SURFACE_SIDE_STYLE( '', ( #261 ) );
#209 = EDGE_LOOP( '', ( #262, #263, #264, #265 ) );
#210 = AXIS2_PLACEMENT_3D( '', #266, #267, #268 );
#211 = SURFACE_SIDE_STYLE( '', ( #269 ) );
#212 = EDGE_LOOP( '', ( #270, #271, #272, #273 ) );
#213 = AXIS2_PLACEMENT_3D( '', #274, #275, #276 );
#214 = SURFACE_SIDE_STYLE( '', ( #277 ) );
#215 = EDGE_LOOP( '', ( #278, #279, #280, #281 ) );
#216 = AXIS2_PLACEMENT_3D( '', #282, #283, #284 );
#217 = SURFACE_SIDE_STYLE( '', ( #285 ) );
#218 = EDGE_LOOP( '', ( #286, #287, #288, #289 ) );
#219 = AXIS2_PLACEMENT_3D( '', #290, #291, #292 );
#220 = SURFACE_SIDE_STYLE( '', ( #293 ) );
#221 = EDGE_LOOP( '', ( #294, #295, #296, #297 ) );
#222 = AXIS2_PLACEMENT_3D( '', #298, #299, #300 );
#223 = SURFACE_SIDE_STYLE( '', ( #301 ) );
#224 = EDGE_LOOP( '', ( #302, #303, #304, #305 ) );
#225 = AXIS2_PLACEMENT_3D( '', #306, #307, #308 );
#226 = SURFACE_SIDE_STYLE( '', ( #309 ) );
#227 = EDGE_LOOP( '', ( #310, #311, #312, #313 ) );
#228 = AXIS2_PLACEMENT_3D( '', #314, #315, #316 );
#229 = SURFACE_SIDE_STYLE( '', ( #317 ) );
#230 = EDGE_LOOP( '', ( #318, #319, #320, #321 ) );
#231 = AXIS2_PLACEMENT_3D( '', #322, #323, #324 );
#232 = SURFACE_SIDE_STYLE( '', ( #325 ) );
#233 = EDGE_LOOP( '', ( #326, #327, #328, #329 ) );
#234 = AXIS2_PLACEMENT_3D( '', #330, #331, #332 );
#236 =  ( LENGTH_UNIT(  )NAMED_UNIT( #191 )SI_UNIT( .MILLI., .METRE. ) );
#237 = SURFACE_STYLE_FILL_AREA( #334 );
#238 = ORIENTED_EDGE( '', *, *, #335, .T. );
#239 = ORIENTED_EDGE( '', *, *, #336, .F. );
#240 = ORIENTED_EDGE( '', *, *, #337, .F. );
#241 = ORIENTED_EDGE( '', *, *, #338, .T. );
#242 = CARTESIAN_POINT( '', ( 1.00000000000000, -0.600000000000000, 0.600000000000000 ) );
#243 = DIRECTION( '', ( -1.08420217248550E-016, 0.000000000000000, -1.00000000000000 ) );
#244 = DIRECTION( '', ( -1.00000000000000, 0.000000000000000, 1.08420217248550E-016 ) );
#245 = SURFACE_STYLE_FILL_AREA( #339 );
#246 = ORIENTED_EDGE( '', *, *, #340, .F. );
#247 = ORIENTED_EDGE( '', *, *, #341, .F. );
#248 = ORIENTED_EDGE( '', *, *, #342, .F. );
#249 = ORIENTED_EDGE( '', *, *, #343, .F. );
#250 = CARTESIAN_POINT( '', ( 0.000000000000000, 0.000000000000000, -0.600000000000000 ) );
#251 = DIRECTION( '', ( 0.000000000000000, 0.000000000000000, 1.00000000000000 ) );
#252 = DIRECTION( '', ( 1.00000000000000, 0.000000000000000, 0.000000000000000 ) );
#253 = SURFACE_STYLE_FILL_AREA( #344 );
#254 = ORIENTED_EDGE( '', *, *, #345, .T. );
#255 = ORIENTED_EDGE( '', *, *, #346, .T. );
#256 = ORIENTED_EDGE( '', *, *, #347, .T. );
#257 = ORIENTED_EDGE( '', *, *, #348, .T. );
#258 = CARTESIAN_POINT( '', ( 0.000000000000000, 0.000000000000000, 0.600000000000000 ) );
#259 = DIRECTION( '', ( 0.000000000000000, 0.000000000000000, 1.00000000000000 ) );
#260 = DIRECTION( '', ( 1.00000000000000, 0.000000000000000, 0.000000000000000 ) );
#261 = SURFACE_STYLE_FILL_AREA( #349 );
#262 = ORIENTED_EDGE( '', *, *, #341, .T. );
#263 = ORIENTED_EDGE( '', *, *, #350, .F. );
#264 = ORIENTED_EDGE( '', *, *, #348, .F. );
#265 = ORIENTED_EDGE( '', *, *, #351, .T. );
#266 = CARTESIAN_POINT( '', ( 1.00000000000000, -0.650000000000000, 0.600000000000000 ) );
#267 = DIRECTION( '', ( -1.00000000000000, -1.66800334228539E-016, 0.000000000000000 ) );
#268 = DIRECTION( '', ( 1.66800334228539E-016, -1.00000000000000, 0.000000000000000 ) );
#269 = SURFACE_STYLE_FILL_AREA( #352 );
#270 = ORIENTED_EDGE( '', *, *, #353, .T. );
#271 = ORIENTED_EDGE( '', *, *, #354, .F. );
#272 = ORIENTED_EDGE( '', *, *, #355, .F. );
#273 = ORIENTED_EDGE( '', *, *, #336, .T. );
#274 = CARTESIAN_POINT( '', ( -1.00000000000000, -0.600000000000000, 0.600000000000000 ) );
#275 = DIRECTION( '', ( 1.00000000000000, 0.000000000000000, 0.000000000000000 ) );
#276 = DIRECTION( '', ( 0.000000000000000, 0.000000000000000, -1.00000000000000 ) );
#277 = SURFACE_STYLE_FILL_AREA( #356 );
#278 = ORIENTED_EDGE( '', *, *, #353, .F. );
#279 = ORIENTED_EDGE( '', *, *, #335, .F. );
#280 = ORIENTED_EDGE( '', *, *, #357, .F. );
#281 = ORIENTED_EDGE( '', *, *, #358, .F. );
#282 = CARTESIAN_POINT( '', ( 0.000000000000000, 0.000000000000000, 0.000000000000000 ) );
#283 = DIRECTION( '', ( 0.000000000000000, -1.00000000000000, 0.000000000000000 ) );
#284 = DIRECTION( '', ( 0.000000000000000, 0.000000000000000, -1.00000000000000 ) );
#285 = SURFACE_STYLE_FILL_AREA( #359 );
#286 = ORIENTED_EDGE( '', *, *, #343, .T. );
#287 = ORIENTED_EDGE( '', *, *, #360, .F. );
#288 = ORIENTED_EDGE( '', *, *, #346, .F. );
#289 = ORIENTED_EDGE( '', *, *, #361, .T. );
#290 = CARTESIAN_POINT( '', ( -1.00000000000000, 0.650000000000000, 0.600000000000000 ) );
#291 = DIRECTION( '', ( 1.00000000000000, 1.66800334228539E-016, 0.000000000000000 ) );
#292 = DIRECTION( '', ( -1.66800334228539E-016, 1.00000000000000, 0.000000000000000 ) );
#293 = SURFACE_STYLE_FILL_AREA( #362 );
#294 = ORIENTED_EDGE( '', *, *, #340, .T. );
#295 = ORIENTED_EDGE( '', *, *, #361, .F. );
#296 = ORIENTED_EDGE( '', *, *, #345, .F. );
#297 = ORIENTED_EDGE( '', *, *, #350, .T. );
#298 = CARTESIAN_POINT( '', ( 1.00000000000000, 0.650000000000000, 0.600000000000000 ) );
#299 = DIRECTION( '', ( 0.000000000000000, -1.00000000000000, 0.000000000000000 ) );
#300 = DIRECTION( '', ( 0.000000000000000, 0.000000000000000, -1.00000000000000 ) );
#301 = SURFACE_STYLE_FILL_AREA( #363 );
#302 = ORIENTED_EDGE( '', *, *, #358, .T. );
#303 = ORIENTED_EDGE( '', *, *, #364, .F. );
#304 = ORIENTED_EDGE( '', *, *, #365, .F. );
#305 = ORIENTED_EDGE( '', *, *, #354, .T. );
#306 = CARTESIAN_POINT( '', ( -1.00000000000000, -0.600000000000000, -0.600000000000000 ) );
#307 = DIRECTION( '', ( -1.08420217248550E-016, 0.000000000000000, 1.00000000000000 ) );
#308 = DIRECTION( '', ( 1.00000000000000, 0.000000000000000, 1.08420217248550E-016 ) );
#309 = SURFACE_STYLE_FILL_AREA( #366 );
#310 = ORIENTED_EDGE( '', *, *, #355, .T. );
#311 = ORIENTED_EDGE( '', *, *, #365, .T. );
#312 = ORIENTED_EDGE( '', *, *, #367, .T. );
#313 = ORIENTED_EDGE( '', *, *, #337, .T. );
#314 = CARTESIAN_POINT( '', ( 0.000000000000000, -0.600000000000000, 0.000000000000000 ) );
#315 = DIRECTION( '', ( 0.000000000000000, -1.00000000000000, 0.000000000000000 ) );
#316 = DIRECTION( '', ( 0.000000000000000, 0.000000000000000, -1.00000000000000 ) );
#317 = SURFACE_STYLE_FILL_AREA( #368 );
#318 = ORIENTED_EDGE( '', *, *, #342, .T. );
#319 = ORIENTED_EDGE( '', *, *, #351, .F. );
#320 = ORIENTED_EDGE( '', *, *, #347, .F. );
#321 = ORIENTED_EDGE( '', *, *, #360, .T. );
#322 = CARTESIAN_POINT( '', ( -1.00000000000000, -0.650000000000000, 0.600000000000000 ) );
#323 = DIRECTION( '', ( -2.16840434497101E-016, 1.00000000000000, 0.000000000000000 ) );
#324 = DIRECTION( '', ( -1.00000000000000, -2.16840434497101E-016, 0.000000000000000 ) );
#325 = SURFACE_STYLE_FILL_AREA( #369 );
#326 = ORIENTED_EDGE( '', *, *, #357, .T. );
#327 = ORIENTED_EDGE( '', *, *, #338, .F. );
#328 = ORIENTED_EDGE( '', *, *, #367, .F. );
#329 = ORIENTED_EDGE( '', *, *, #364, .T. );
#330 = CARTESIAN_POINT( '', ( 1.00000000000000, -0.600000000000000, -0.600000000000000 ) );
#331 = DIRECTION( '', ( -1.00000000000000, 0.000000000000000, 0.000000000000000 ) );
#332 = DIRECTION( '', ( 0.000000000000000, 0.000000000000000, 1.00000000000000 ) );
#334 = FILL_AREA_STYLE( '', ( #370 ) );
#335 = EDGE_CURVE( '', #371, #372, #373, .T. );
#336 = EDGE_CURVE( '', #374, #372, #375, .T. );
#337 = EDGE_CURVE( '', #376, #374, #377, .T. );
#338 = EDGE_CURVE( '', #376, #371, #378, .T. );
#339 = FILL_AREA_STYLE( '', ( #379 ) );
#340 = EDGE_CURVE( '', #380, #381, #382, .T. );
#341 = EDGE_CURVE( '', #383, #380, #384, .T. );
#342 = EDGE_CURVE( '', #385, #383, #386, .T. );
#343 = EDGE_CURVE( '', #381, #385, #387, .T. );
#344 = FILL_AREA_STYLE( '', ( #388 ) );
#345 = EDGE_CURVE( '', #389, #390, #391, .T. );
#346 = EDGE_CURVE( '', #390, #392, #393, .T. );
#347 = EDGE_CURVE( '', #392, #394, #395, .T. );
#348 = EDGE_CURVE( '', #394, #389, #396, .T. );
#349 = FILL_AREA_STYLE( '', ( #397 ) );
#350 = EDGE_CURVE( '', #389, #380, #398, .T. );
#351 = EDGE_CURVE( '', #394, #383, #399, .T. );
#352 = FILL_AREA_STYLE( '', ( #400 ) );
#353 = EDGE_CURVE( '', #372, #401, #402, .T. );
#354 = EDGE_CURVE( '', #403, #401, #404, .T. );
#355 = EDGE_CURVE( '', #374, #403, #405, .T. );
#356 = FILL_AREA_STYLE( '', ( #406 ) );
#357 = EDGE_CURVE( '', #407, #371, #408, .T. );
#358 = EDGE_CURVE( '', #401, #407, #409, .T. );
#359 = FILL_AREA_STYLE( '', ( #410 ) );
#360 = EDGE_CURVE( '', #392, #385, #411, .T. );
#361 = EDGE_CURVE( '', #390, #381, #412, .T. );
#362 = FILL_AREA_STYLE( '', ( #413 ) );
#363 = FILL_AREA_STYLE( '', ( #414 ) );
#364 = EDGE_CURVE( '', #415, #407, #416, .T. );
#365 = EDGE_CURVE( '', #403, #415, #417, .T. );
#366 = FILL_AREA_STYLE( '', ( #418 ) );
#367 = EDGE_CURVE( '', #415, #376, #419, .T. );
#368 = FILL_AREA_STYLE( '', ( #420 ) );
#369 = FILL_AREA_STYLE( '', ( #421 ) );
#370 = FILL_AREA_STYLE_COLOUR( '', #422 );
#371 = VERTEX_POINT( '', #423 );
#372 = VERTEX_POINT( '', #424 );
#373 = LINE( '', #425, #426 );
#374 = VERTEX_POINT( '', #427 );
#375 = LINE( '', #428, #429 );
#376 = VERTEX_POINT( '', #430 );
#377 = LINE( '', #431, #432 );
#378 = LINE( '', #433, #434 );
#379 = FILL_AREA_STYLE_COLOUR( '', #435 );
#380 = VERTEX_POINT( '', #436 );
#381 = VERTEX_POINT( '', #437 );
#382 = LINE( '', #438, #439 );
#383 = VERTEX_POINT( '', #440 );
#384 = LINE( '', #441, #442 );
#385 = VERTEX_POINT( '', #443 );
#386 = LINE( '', #444, #445 );
#387 = LINE( '', #446, #447 );
#388 = FILL_AREA_STYLE_COLOUR( '', #448 );
#389 = VERTEX_POINT( '', #449 );
#390 = VERTEX_POINT( '', #450 );
#391 = LINE( '', #451, #452 );
#392 = VERTEX_POINT( '', #453 );
#393 = LINE( '', #454, #455 );
#394 = VERTEX_POINT( '', #456 );
#395 = LINE( '', #457, #458 );
#396 = LINE( '', #459, #460 );
#397 = FILL_AREA_STYLE_COLOUR( '', #461 );
#398 = LINE( '', #462, #463 );
#399 = LINE( '', #464, #465 );
#400 = FILL_AREA_STYLE_COLOUR( '', #466 );
#401 = VERTEX_POINT( '', #467 );
#402 = LINE( '', #468, #469 );
#403 = VERTEX_POINT( '', #470 );
#404 = LINE( '', #471, #472 );
#405 = LINE( '', #473, #474 );
#406 = FILL_AREA_STYLE_COLOUR( '', #475 );
#407 = VERTEX_POINT( '', #476 );
#408 = LINE( '', #477, #478 );
#409 = LINE( '', #479, #480 );
#410 = FILL_AREA_STYLE_COLOUR( '', #481 );
#411 = LINE( '', #482, #483 );
#412 = LINE( '', #484, #485 );
#413 = FILL_AREA_STYLE_COLOUR( '', #486 );
#414 = FILL_AREA_STYLE_COLOUR( '', #487 );
#415 = VERTEX_POINT( '', #488 );
#416 = LINE( '', #489, #490 );
#417 = LINE( '', #491, #492 );
#418 = FILL_AREA_STYLE_COLOUR( '', #493 );
#419 = LINE( '', #494, #495 );
#420 = FILL_AREA_STYLE_COLOUR( '', #496 );
#421 = FILL_AREA_STYLE_COLOUR( '', #497 );
#422 = COLOUR_RGB( '', 0.699999988079071, 0.699999988079071, 0.699999988079071 );
#423 = CARTESIAN_POINT( '', ( 1.00000000000000, 0.000000000000000, 0.600000000000000 ) );
#424 = CARTESIAN_POINT( '', ( -1.00000000000000, 0.000000000000000, 0.600000000000000 ) );
#425 = CARTESIAN_POINT( '', ( 1.00000000000000, 0.000000000000000, 0.600000000000000 ) );
#426 = VECTOR( '', #498, 1000.00000000000 );
#427 = CARTESIAN_POINT( '', ( -1.00000000000000, -0.600000000000000, 0.600000000000000 ) );
#428 = CARTESIAN_POINT( '', ( -1.00000000000000, -0.600000000000000, 0.600000000000000 ) );
#429 = VECTOR( '', #499, 1000.00000000000 );
#430 = CARTESIAN_POINT( '', ( 1.00000000000000, -0.600000000000000, 0.600000000000000 ) );
#431 = CARTESIAN_POINT( '', ( 1.00000000000000, -0.600000000000000, 0.600000000000000 ) );
#432 = VECTOR( '', #500, 1000.00000000000 );
#433 = CARTESIAN_POINT( '', ( 1.00000000000000, -0.600000000000000, 0.600000000000000 ) );
#434 = VECTOR( '', #501, 1000.00000000000 );
#435 = COLOUR_RGB( '', 0.119999997317791, 0.119999997317791, 0.119999997317791 );
#436 = CARTESIAN_POINT( '', ( 1.00000000000000, 0.650000000000000, -0.600000000000000 ) );
#437 = CARTESIAN_POINT( '', ( -1.00000000000000, 0.650000000000000, -0.600000000000000 ) );
#438 = CARTESIAN_POINT( '', ( 1.00000000000000, 0.650000000000000, -0.600000000000000 ) );
#439 = VECTOR( '', #502, 1000.00000000000 );
#440 = CARTESIAN_POINT( '', ( 1.00000000000000, -0.650000000000000, -0.600000000000000 ) );
#441 = CARTESIAN_POINT( '', ( 1.00000000000000, -0.650000000000000, -0.600000000000000 ) );
#442 = VECTOR( '', #503, 1000.00000000000 );
#443 = CARTESIAN_POINT( '', ( -1.00000000000000, -0.650000000000000, -0.600000000000000 ) );
#444 = CARTESIAN_POINT( '', ( -1.00000000000000, -0.650000000000000, -0.600000000000000 ) );
#445 = VECTOR( '', #504, 1000.00000000000 );
#446 = CARTESIAN_POINT( '', ( -1.00000000000000, 0.650000000000000, -0.600000000000000 ) );
#447 = VECTOR( '', #505, 1000.00000000000 );
#448 = COLOUR_RGB( '', 0.119999997317791, 0.119999997317791, 0.119999997317791 );
#449 = CARTESIAN_POINT( '', ( 1.00000000000000, 0.650000000000000, 0.600000000000000 ) );
#450 = CARTESIAN_POINT( '', ( -1.00000000000000, 0.650000000000000, 0.600000000000000 ) );
#451 = CARTESIAN_POINT( '', ( 1.00000000000000, 0.650000000000000, 0.600000000000000 ) );
#452 = VECTOR( '', #506, 1000.00000000000 );
#453 = CARTESIAN_POINT( '', ( -1.00000000000000, -0.650000000000000, 0.600000000000000 ) );
#454 = CARTESIAN_POINT( '', ( -1.00000000000000, 0.650000000000000, 0.600000000000000 ) );
#455 = VECTOR( '', #507, 1000.00000000000 );
#456 = CARTESIAN_POINT( '', ( 1.00000000000000, -0.650000000000000, 0.600000000000000 ) );
#457 = CARTESIAN_POINT( '', ( -1.00000000000000, -0.650000000000000, 0.600000000000000 ) );
#458 = VECTOR( '', #508, 1000.00000000000 );
#459 = CARTESIAN_POINT( '', ( 1.00000000000000, -0.650000000000000, 0.600000000000000 ) );
#460 = VECTOR( '', #509, 1000.00000000000 );
#461 = COLOUR_RGB( '', 0.119999997317791, 0.119999997317791, 0.119999997317791 );
#462 = CARTESIAN_POINT( '', ( 1.00000000000000, 0.650000000000000, 0.600000000000000 ) );
#463 = VECTOR( '', #510, 1000.00000000000 );
#464 = CARTESIAN_POINT( '', ( 1.00000000000000, -0.650000000000000, 0.600000000000000 ) );
#465 = VECTOR( '', #511, 1000.00000000000 );
#466 = COLOUR_RGB( '', 0.699999988079071, 0.699999988079071, 0.699999988079071 );
#467 = CARTESIAN_POINT( '', ( -1.00000000000000, 0.000000000000000, -0.600000000000000 ) );
#468 = CARTESIAN_POINT( '', ( -1.00000000000000, 0.000000000000000, 0.600000000000000 ) );
#469 = VECTOR( '', #512, 1000.00000000000 );
#470 = CARTESIAN_POINT( '', ( -1.00000000000000, -0.600000000000000, -0.600000000000000 ) );
#471 = CARTESIAN_POINT( '', ( -1.00000000000000, -0.600000000000000, -0.600000000000000 ) );
#472 = VECTOR( '', #513, 1000.00000000000 );
#473 = CARTESIAN_POINT( '', ( -1.00000000000000, -0.600000000000000, 0.600000000000000 ) );
#474 = VECTOR( '', #514, 1000.00000000000 );
#475 = COLOUR_RGB( '', 0.699999988079071, 0.699999988079071, 0.699999988079071 );
#476 = CARTESIAN_POINT( '', ( 1.00000000000000, 0.000000000000000, -0.600000000000000 ) );
#477 = CARTESIAN_POINT( '', ( 1.00000000000000, 0.000000000000000, -0.600000000000000 ) );
#478 = VECTOR( '', #515, 1000.00000000000 );
#479 = CARTESIAN_POINT( '', ( -1.00000000000000, 0.000000000000000, -0.600000000000000 ) );
#480 = VECTOR( '', #516, 1000.00000000000 );
#481 = COLOUR_RGB( '', 0.119999997317791, 0.119999997317791, 0.119999997317791 );
#482 = CARTESIAN_POINT( '', ( -1.00000000000000, -0.650000000000000, 0.600000000000000 ) );
#483 = VECTOR( '', #517, 1000.00000000000 );
#484 = CARTESIAN_POINT( '', ( -1.00000000000000, 0.650000000000000, 0.600000000000000 ) );
#485 = VECTOR( '', #518, 1000.00000000000 );
#486 = COLOUR_RGB( '', 0.119999997317791, 0.119999997317791, 0.119999997317791 );
#487 = COLOUR_RGB( '', 0.699999988079071, 0.699999988079071, 0.699999988079071 );
#488 = CARTESIAN_POINT( '', ( 1.00000000000000, -0.600000000000000, -0.600000000000000 ) );
#489 = CARTESIAN_POINT( '', ( 1.00000000000000, -0.600000000000000, -0.600000000000000 ) );
#490 = VECTOR( '', #519, 1000.00000000000 );
#491 = CARTESIAN_POINT( '', ( -1.00000000000000, -0.600000000000000, -0.600000000000000 ) );
#492 = VECTOR( '', #520, 1000.00000000000 );
#493 = COLOUR_RGB( '', 0.699999988079071, 0.699999988079071, 0.699999988079071 );
#494 = CARTESIAN_POINT( '', ( 1.00000000000000, -0.600000000000000, -0.600000000000000 ) );
#495 = VECTOR( '', #521, 1000.00000000000 );
#496 = COLOUR_RGB( '', 0.119999997317791, 0.119999997317791, 0.119999997317791 );
#497 = COLOUR_RGB( '', 0.699999988079071, 0.699999988079071, 0.699999988079071 );
#498 = DIRECTION( '', ( -1.00000000000000, 0.000000000000000, 1.08420217248550E-016 ) );
#499 = DIRECTION( '', ( 0.000000000000000, 1.00000000000000, 0.000000000000000 ) );
#500 = DIRECTION( '', ( -1.00000000000000, 0.000000000000000, 1.08420217248550E-016 ) );
#501 = DIRECTION( '', ( 0.000000000000000, 1.00000000000000, 0.000000000000000 ) );
#502 = DIRECTION( '', ( -1.00000000000000, 0.000000000000000, 0.000000000000000 ) );
#503 = DIRECTION( '', ( -1.66800334228539E-016, 1.00000000000000, 0.000000000000000 ) );
#504 = DIRECTION( '', ( 1.00000000000000, 2.16840434497101E-016, 0.000000000000000 ) );
#505 = DIRECTION( '', ( 1.66800334228539E-016, -1.00000000000000, 0.000000000000000 ) );
#506 = DIRECTION( '', ( -1.00000000000000, 0.000000000000000, 0.000000000000000 ) );
#507 = DIRECTION( '', ( 1.66800334228539E-016, -1.00000000000000, 0.000000000000000 ) );
#508 = DIRECTION( '', ( 1.00000000000000, 2.16840434497101E-016, 0.000000000000000 ) );
#509 = DIRECTION( '', ( -1.66800334228539E-016, 1.00000000000000, 0.000000000000000 ) );
#510 = DIRECTION( '', ( 0.000000000000000, 0.000000000000000, -1.00000000000000 ) );
#511 = DIRECTION( '', ( 0.000000000000000, 0.000000000000000, -1.00000000000000 ) );
#512 = DIRECTION( '', ( 0.000000000000000, 0.000000000000000, -1.00000000000000 ) );
#513 = DIRECTION( '', ( 0.000000000000000, 1.00000000000000, 0.000000000000000 ) );
#514 = DIRECTION( '', ( 0.000000000000000, 0.000000000000000, -1.00000000000000 ) );
#515 = DIRECTION( '', ( 0.000000000000000, 0.000000000000000, 1.00000000000000 ) );
#516 = DIRECTION( '', ( 1.00000000000000, 0.000000000000000, 1.08420217248550E-016 ) );
#517 = DIRECTION( '', ( 0.000000000000000, 0.000000000000000, -1.00000000000000 ) );
#518 = DIRECTION( '', ( 0.000000000000000, 0.000000000000000, -1.00000000000000 ) );
#519 = DIRECTION( '', ( 0.000000000000000, 1.00000000000000, 0.000000000000000 ) );
#520 = DIRECTION( '', ( 1.00000000000000, 0.000000000000000, 1.08420217248550E-016 ) );
#521 = DIRECTION( '', ( 0.000000000000000, 0.000000000000000, 1.00000000000000 ) );
ENDSEC;
END-ISO-10303-21;
