C                                                                       S      1
1H,,1H;,10HSolid Edge,20H74479275xxx_0805.igs,27HBy Siemens PLM IncorporG      1
ated,26HXPlus GENERIC/IGES 17.0.49,32,38, 6,308,15,7HUnknown,1.000,2,2HMG      2
M,1,1.000,15H20151118.104336,1.0e-005,0.00,6HAuthor,5HTitle,11,0,15H2015G      3
1118.104336;                                                            G      4
     314       1       0       1       0       0       0       000010001D      1
     314       1       0       2       0       0       0               0D      2
     128       3       0       1       0       0       0       000010001D      3
     128       1       0       3       0       0       0               0D      4
     126       6       0       1       0       0       0       000010001D      5
     126       1       0       2       0       0       0               0D      6
     502       8       0       1       0       0       0       000010001D      7
     502       1       0       3       1       0       0               0D      8
     126      11       0       1       0       0       0       000010001D      9
     126       1       0       2       0       0       0               0D     10
     126      13       0       1       0       0       0       000010001D     11
     126       1       0       2       0       0       0               0D     12
     126      15       0       1       0       0       0       000010001D     13
     126       1       0       2       0       0       0               0D     14
     126      17       0       1       0       0       0       000010001D     15
     126       1       0       2       0       0       0               0D     16
     126      19       0       1       0       0       0       000010001D     17
     126       1       0       2       0       0       0               0D     18
     126      21       0       1       0       0       0       000010001D     19
     126       1       0       2       0       0       0               0D     20
     126      23       0       1       0       0       0       000010001D     21
     126       1       0       2       0       0       0               0D     22
     126      25       0       1       0       0       0       000010001D     23
     126       1       0       2       0       0       0               0D     24
     126      27       0       1       0       0       0       000010001D     25
     126       1       0       2       0       0       0               0D     26
     126      29       0       1       0       0       0       000010001D     27
     126       1       0       2       0       0       0               0D     28
     126      31       0       1       0       0       0       000010001D     29
     126       1       0       2       0       0       0               0D     30
     504      33       0       1       0       0       0       000010001D     31
     504       1       0       3       1       0       0               0D     32
     508      36       0       1       0       0       0       000010001D     33
     508       1       0       1       1       0       0               0D     34
     510      37       0       1       0       0       0       000010001D     35
     510       1      -1       1       1       0       0               0D     36
     314      38       0       1       0       0       0       000010001D     37
     314       1       0       2       0       0       0               0D     38
     128      40       0       1       0       0       0       000010001D     39
     128       1       0       3       0       0       0               0D     40
     508      43       0       1       0       0       0       000010001D     41
     508       1       0       1       1       0       0               0D     42
     510      44       0       1       0       0       0       000010001D     43
     510       1     -37       1       1       0       0               0D     44
     314      45       0       1       0       0       0       000010001D     45
     314       1       0       2       0       0       0               0D     46
     128      47       0       1       0       0       0       000010001D     47
     128       1       0       3       0       0       0               0D     48
     508      50       0       1       0       0       0       000010001D     49
     508       1       0       1       1       0       0               0D     50
     510      51       0       1       0       0       0       000010001D     51
     510       1     -45       1       1       0       0               0D     52
     314      52       0       1       0       0       0       000010001D     53
     314       1       0       2       0       0       0               0D     54
     128      54       0       1       0       0       0       000010001D     55
     128       1       0       3       0       0       0               0D     56
     508      57       0       1       0       0       0       000010001D     57
     508       1       0       1       1       0       0               0D     58
     510      58       0       1       0       0       0       000010001D     59
     510       1     -53       1       1       0       0               0D     60
     314      59       0       1       0       0       0       000010001D     61
     314       1       0       2       0       0       0               0D     62
     128      61       0       1       0       0       0       000010001D     63
     128       1       0       3       0       0       0               0D     64
     508      64       0       1       0       0       0       000010001D     65
     508       1       0       1       1       0       0               0D     66
     510      65       0       1       0       0       0       000010001D     67
     510       1     -61       1       1       0       0               0D     68
     314      66       0       1       0       0       0       000010001D     69
     314       1       0       2       0       0       0               0D     70
     128      68       0       1       0       0       0       000010001D     71
     128       1       0       3       0       0       0               0D     72
     508      71       0       1       0       0       0       000010001D     73
     508       1       0       1       1       0       0               0D     74
     510      72       0       1       0       0       0       000010001D     75
     510       1     -69       1       1       0       0               0D     76
     514      73       0       1       0       0       0       000010001D     77
     514       1       0       1       1       0       0               0D     78
     186      74       0       1       0       0       0       000010001D     79
     186       1       0       1       0       0       0 Ferrite       0D     80
     308      75       0       1       0       0       0       000010001D     81
     308       1       0       1       0       0       0               0D     82
     408      76       0       1       0       0       0       000010001D     83
     408       1       0       1       0       0       0               0D     84
     124      77       0       1       0       0       0       000010001D     85
     124       1       0       1       0       0       0               0D     86
     314      78       0       1       0       0       0       000010001D     87
     314       1       0       2       0       0       0               0D     88
     128      80       0       1       0       0       0       000010001D     89
     128       1       0       3       0       0       0               0D     90
     126      83       0       1       0       0       0       000010001D     91
     126       1       0       2       0       0       0               0D     92
     502      85       0       1       0       0       0       000010001D     93
     502       1       0       2       1       0       0               0D     94
     126      87       0       1       0       0       0       000010001D     95
     126       1       0       2       0       0       0               0D     96
     126      89       0       1       0       0       0       000010001D     97
     126       1       0       2       0       0       0               0D     98
     126      91       0       1       0       0       0       000010001D     99
     126       1       0       2       0       0       0               0D    100
     126      93       0       1       0       0       0       000010001D    101
     126       1       0       2       0       0       0               0D    102
     126      95       0       1       0       0       0       000010001D    103
     126       1       0       2       0       0       0               0D    104
     126      97       0       1       0       0       0       000010001D    105
     126       1       0       2       0       0       0               0D    106
     126      99       0       1       0       0       0       000010001D    107
     126       1       0       2       0       0       0               0D    108
     126     101       0       1       0       0       0       000010001D    109
     126       1       0       2       0       0       0               0D    110
     126     103       0       1       0       0       0       000010001D    111
     126       1       0       2       0       0       0               0D    112
     126     105       0       1       0       0       0       000010001D    113
     126       1       0       2       0       0       0               0D    114
     126     107       0       1       0       0       0       000010001D    115
     126       1       0       2       0       0       0               0D    116
     504     109       0       1       0       0       0       000010001D    117
     504       1       0       3       1       0       0               0D    118
     508     112       0       1       0       0       0       000010001D    119
     508       1       0       1       1       0       0               0D    120
     510     113       0       1       0       0       0       000010001D    121
     510       1     -87       1       1       0       0               0D    122
     314     114       0       1       0       0       0       000010001D    123
     314       1       0       2       0       0       0               0D    124
     128     116       0       1       0       0       0       000010001D    125
     128       1       0       3       0       0       0               0D    126
     508     119       0       1       0       0       0       000010001D    127
     508       1       0       1       1       0       0               0D    128
     510     120       0       1       0       0       0       000010001D    129
     510       1    -123       1       1       0       0               0D    130
     314     121       0       1       0       0       0       000010001D    131
     314       1       0       2       0       0       0               0D    132
     128     123       0       1       0       0       0       000010001D    133
     128       1       0       2       0       0       0               0D    134
     508     125       0       1       0       0       0       000010001D    135
     508       1       0       1       1       0       0               0D    136
     510     126       0       1       0       0       0       000010001D    137
     510       1    -131       1       1       0       0               0D    138
     314     127       0       1       0       0       0       000010001D    139
     314       1       0       2       0       0       0               0D    140
     128     129       0       1       0       0       0       000010001D    141
     128       1       0       2       0       0       0               0D    142
     508     131       0       1       0       0       0       000010001D    143
     508       1       0       1       1       0       0               0D    144
     510     132       0       1       0       0       0       000010001D    145
     510       1    -139       1       1       0       0               0D    146
     314     133       0       1       0       0       0       000010001D    147
     314       1       0       2       0       0       0               0D    148
     128     135       0       1       0       0       0       000010001D    149
     128       1       0       3       0       0       0               0D    150
     508     138       0       1       0       0       0       000010001D    151
     508       1       0       1       1       0       0               0D    152
     510     139       0       1       0       0       0       000010001D    153
     510       1    -147       1       1       0       0               0D    154
     314     140       0       1       0       0       0       000010001D    155
     314       1       0       2       0       0       0               0D    156
     128     142       0       1       0       0       0       000010001D    157
     128       1       0       3       0       0       0               0D    158
     508     145       0       1       0       0       0       000010001D    159
     508       1       0       1       1       0       0               0D    160
     510     146       0       1       0       0       0       000010001D    161
     510       1    -155       1       1       0       0               0D    162
     514     147       0       1       0       0       0       000010001D    163
     514       1       0       1       1       0       0               0D    164
     186     148       0       1       0       0       0       000010001D    165
     186       1       0       1       0       0       0 Contact       0D    166
     308     149       0       1       0       0       0       000010001D    167
     308       1       0       1       0       0       0               0D    168
     408     150       0       1       0       0      85       000010001D    169
     408       1       0       1       0       0       0               0D    170
     124     151       0       1       0       0       0       000010001D    171
     124       1       0       1       0       0       0               0D    172
     408     152       0       1       0       0     171       000010001D    173
     408       1       0       1       0       0       0               0D    174
     308     153       0       1       0       0       0       000010001D    175
     308       1       0       1       0       0       0               0D    176
     408     154       0       1       0       0       0       000000001D    177
     408       1       0       1       0       0       0               0D    178
314,11.9999997317791,11.9999997317791,11.9999997317791,10HMixedC       1P      1
olor;                                                                  1P      2
128,1,1,1,1,0,0,1,0,0,0.,0.,1.,1.,0.,0.,1.,1.,1.,1.,1.,1.,             3P      3
-0.625,0.5,0.5,-0.625,0.5,-0.5,0.625,0.5,0.5,0.625,0.5,-0.5,0.,        3P      4
1.,0.,1.;                                                              3P      5
126,1,1,0,0,1,0,0.,0.,1.,1.,1.,1.,-0.625,0.5,0.5,-0.625,0.5,           5P      6
-0.5,0.,1.;                                                            5P      7
502,8,0.625,0.5,-0.5,-0.625,-0.5,-0.5,0.625,-0.5,0.5,-0.625,0.5,       7P      8
-0.5,-0.625,-0.5,0.5,0.625,0.5,0.5,-0.625,0.5,0.5,0.625,-0.5,          7P      9
-0.5;                                                                  7P     10
126,1,1,0,0,1,0,0.,0.,1.,1.,1.,1.,-0.625,-0.5,0.5,-0.625,-0.5,         9P     11
-0.5,0.,1.;                                                            9P     12
126,1,1,0,0,1,0,0.,0.,1.,1.,1.,1.,0.625,-0.5,0.5,0.625,-0.5,          11P     13
-0.5,0.,1.;                                                           11P     14
126,1,1,0,0,1,0,0.,0.,1.,1.,1.,1.,0.625,0.5,0.5,0.625,0.5,-0.5,       13P     15
0.,1.;                                                                13P     16
126,1,1,0,0,1,0,0.,0.,1.,1.,1.,1.,0.625,-0.5,0.5,0.625,0.5,0.5,       15P     17
0.,1.;                                                                15P     18
126,1,1,0,0,1,0,0.,0.,1.,1.,1.,1.,-0.625,-0.5,0.5,0.625,-0.5,         17P     19
0.5,0.,1.;                                                            17P     20
126,1,1,0,0,1,0,0.,0.,1.,1.,1.,1.,-0.625,0.5,0.5,-0.625,-0.5,         19P     21
0.5,0.,1.;                                                            19P     22
126,1,1,0,0,1,0,0.,0.,1.,1.,1.,1.,0.625,0.5,0.5,-0.625,0.5,0.5,       21P     23
0.,1.;                                                                21P     24
126,1,1,0,0,1,0,0.,0.,1.,1.,1.,1.,0.625,-0.5,-0.5,0.625,0.5,          23P     25
-0.5,0.,1.;                                                           23P     26
126,1,1,0,0,1,0,0.,0.,1.,1.,1.,1.,-0.625,-0.5,-0.5,0.625,-0.5,        25P     27
-0.5,0.,1.;                                                           25P     28
126,1,1,0,0,1,0,0.,0.,1.,1.,1.,1.,-0.625,0.5,-0.5,-0.625,-0.5,        27P     29
-0.5,0.,1.;                                                           27P     30
126,1,1,0,0,1,0,0.,0.,1.,1.,1.,1.,0.625,0.5,-0.5,-0.625,0.5,          29P     31
-0.5,0.,1.;                                                           29P     32
504,12,5,7,7,7,4,9,7,5,7,2,11,7,3,7,8,13,7,6,7,1,15,7,3,7,6,17,       31P     33
7,5,7,3,19,7,7,7,5,21,7,6,7,7,23,7,8,7,1,25,7,2,7,8,27,7,4,7,2,       31P     34
29,7,1,7,4;                                                           31P     35
508,4,0,31,12,1,0,0,31,1,0,0,0,31,8,0,0,0,31,4,1,0;                   33P     36
510,3,1,1,33;                                                         35P     37
314,11.9999997317791,11.9999997317791,11.9999997317791,10HMixedC      37P     38
olor;                                                                 37P     39
128,1,1,1,1,0,0,1,0,0,0.,0.,1.,1.,0.,0.,1.,1.,1.,1.,1.,1.,            39P     40
-0.625,-0.5,-0.5,-0.625,0.5,-0.5,-0.625,-0.5,0.5,-0.625,0.5,0.5,      39P     41
0.,1.,0.,1.;                                                          39P     42
508,4,0,31,11,1,0,0,31,2,0,0,0,31,7,0,0,0,31,1,1,0;                   41P     43
510,39,1,1,41;                                                        43P     44
314,11.9999997317791,11.9999997317791,11.9999997317791,10HMixedC      45P     45
olor;                                                                 45P     46
128,1,1,1,1,0,0,1,0,0,0.,0.,1.,1.,0.,0.,1.,1.,1.,1.,1.,1.,0.625,      47P     47
-0.5,-0.5,-0.625,-0.5,-0.5,0.625,-0.5,0.5,-0.625,-0.5,0.5,0.,1.,      47P     48
0.,1.;                                                                47P     49
508,4,0,31,10,1,0,0,31,3,0,0,0,31,6,0,0,0,31,2,1,0;                   49P     50
510,47,1,1,49;                                                        51P     51
314,11.9999997317791,11.9999997317791,11.9999997317791,10HMixedC      53P     52
olor;                                                                 53P     53
128,1,1,1,1,0,0,1,0,0,0.,0.,1.,1.,0.,0.,1.,1.,1.,1.,1.,1.,0.625,      55P     54
0.5,-0.5,0.625,-0.5,-0.5,0.625,0.5,0.5,0.625,-0.5,0.5,0.,1.,0.,       55P     55
1.;                                                                   55P     56
508,4,0,31,9,1,0,0,31,4,0,0,0,31,5,0,0,0,31,3,1,0;                    57P     57
510,55,1,1,57;                                                        59P     58
314,11.9999997317791,11.9999997317791,11.9999997317791,10HMixedC      61P     59
olor;                                                                 61P     60
128,1,1,1,1,0,0,1,0,0,0.,0.,1.,1.,0.,0.,1.,1.,1.,1.,1.,1.,            63P     61
-0.625,-0.5,-0.5,0.625,-0.5,-0.5,-0.625,0.5,-0.5,0.625,0.5,-0.5,      63P     62
0.,1.,0.,1.;                                                          63P     63
508,4,0,31,12,0,0,0,31,9,0,0,0,31,10,0,0,0,31,11,0,0;                 65P     64
510,63,1,1,65;                                                        67P     65
314,11.9999997317791,11.9999997317791,11.9999997317791,10HMixedC      69P     66
olor;                                                                 69P     67
128,1,1,1,1,0,0,1,0,0,0.,0.,1.,1.,0.,0.,1.,1.,1.,1.,1.,1.,            71P     68
-0.625,-0.5,0.5,0.625,-0.5,0.5,-0.625,0.5,0.5,0.625,0.5,0.5,0.,       71P     69
1.,0.,1.;                                                             71P     70
508,4,0,31,8,1,0,0,31,7,1,0,0,31,6,1,0,0,31,5,1,0;                    73P     71
510,71,1,1,73;                                                        75P     72
514,6,35,0,43,0,51,0,59,0,67,0,75,1;                                  77P     73
186,77,1,0;                                                           79P     74
308,0,7HDEFAULT,1,79;                                                 81P     75
408,81,0.,0.,0.,1.;                                                   83P     76
124,1.,0.,0.,0.00000000000001,0.,1.,0.,-0.5,0.,0.,1.,0.;              85P     77
314,69.9999988079071,69.9999988079071,69.9999988079071,10HMixedC      87P     78
olor;                                                                 87P     79
128,1,1,1,1,0,0,1,0,0,0.,0.,1.,1.,0.,0.,1.,1.,1.,1.,1.,1.,            89P     80
-0.625,-0.5,0.5,-0.625,-0.5,-0.5,-0.625,0.,0.5,-0.625,0.,-0.5,        89P     81
0.,1.,0.,1.;                                                          89P     82
126,1,1,0,0,1,0,0.,0.,1.,1.,1.,1.,-0.625,-0.5,-0.5,-0.625,0.,         91P     83
-0.5,0.,1.;                                                           91P     84
502,8,0.625,-0.5,0.5,-0.625,-0.5,0.5,-0.625,-0.5,-0.5,0.625,0.,       93P     85
-0.5,0.625,-0.5,-0.5,-0.625,0.,-0.5,0.625,0.,0.5,-0.625,0.,0.5;       93P     86
126,1,1,0,0,1,0,0.,0.,1.,1.,1.,1.,0.625,-0.5,-0.5,0.625,0.,-0.5,      95P     87
0.,1.;                                                                95P     88
126,1,1,0,0,1,0,0.,0.,1.,1.,1.,1.,0.625,-0.5,0.5,0.625,0.,0.5,        97P     89
0.,1.;                                                                97P     90
126,1,1,0,0,1,0,0.,0.,1.,1.,1.,1.,-0.625,-0.5,0.5,-0.625,0.,0.5,      99P     91
0.,1.;                                                                99P     92
126,1,1,0,0,1,0,0.,0.,1.,1.,1.,1.,0.625,-0.5,0.5,-0.625,-0.5,        101P     93
0.5,0.,1.;                                                           101P     94
126,1,1,0,0,1,0,0.,0.,1.,1.,1.,1.,0.625,-0.5,-0.5,0.625,-0.5,        103P     95
0.5,0.,1.;                                                           103P     96
126,1,1,0,0,1,0,0.,0.,1.,1.,1.,1.,-0.625,-0.5,-0.5,0.625,-0.5,       105P     97
-0.5,0.,1.;                                                          105P     98
126,1,1,0,0,1,0,0.,0.,1.,1.,1.,1.,-0.625,-0.5,0.5,-0.625,-0.5,       107P     99
-0.5,0.,1.;                                                          107P    100
126,1,1,0,0,1,0,0.,0.,1.,1.,1.,1.,0.625,0.,0.5,-0.625,0.,0.5,0.,     109P    101
1.;                                                                  109P    102
126,1,1,0,0,1,0,0.,0.,1.,1.,1.,1.,0.625,0.,-0.5,0.625,0.,0.5,0.,     111P    103
1.;                                                                  111P    104
126,1,1,0,0,1,0,0.,0.,1.,1.,1.,1.,-0.625,0.,-0.5,0.625,0.,-0.5,      113P    105
0.,1.;                                                               113P    106
126,1,1,0,0,1,0,0.,0.,1.,1.,1.,1.,-0.625,0.,0.5,-0.625,0.,-0.5,      115P    107
0.,1.;                                                               115P    108
504,12,91,93,3,93,6,95,93,5,93,4,97,93,1,93,7,99,93,2,93,8,101,      117P    109
93,1,93,2,103,93,5,93,1,105,93,3,93,5,107,93,2,93,3,109,93,7,93,     117P    110
8,111,93,4,93,7,113,93,6,93,4,115,93,8,93,6;                         117P    111
508,4,0,117,12,1,0,0,117,1,0,0,0,117,8,0,0,0,117,4,1,0;              119P    112
510,89,1,1,119;                                                      121P    113
314,69.9999988079071,69.9999988079071,69.9999988079071,10HMixedC     123P    114
olor;                                                                123P    115
128,1,1,1,1,0,0,1,0,0,0.,0.,1.,1.,0.,0.,1.,1.,1.,1.,1.,1.,           125P    116
-0.625,-0.5,-0.5,0.625,-0.5,-0.5,-0.625,0.,-0.5,0.625,0.,-0.5,       125P    117
0.,1.,0.,1.;                                                         125P    118
508,4,0,117,11,1,0,0,117,2,0,0,0,117,7,0,0,0,117,1,1,0;              127P    119
510,125,1,1,127;                                                     129P    120
314,69.9999988079071,69.9999988079071,69.9999988079071,10HMixedC     131P    121
olor;                                                                131P    122
128,1,1,1,1,0,0,1,0,0,0.,0.,1.,1.,0.,0.,1.,1.,1.,1.,1.,1.,0.625,     133P    123
-0.5,-0.5,0.625,-0.5,0.5,0.625,0.,-0.5,0.625,0.,0.5,0.,1.,0.,1.;     133P    124
508,4,0,117,10,1,0,0,117,3,0,0,0,117,6,0,0,0,117,2,1,0;              135P    125
510,133,1,1,135;                                                     137P    126
314,69.9999988079071,69.9999988079071,69.9999988079071,10HMixedC     139P    127
olor;                                                                139P    128
128,1,1,1,1,0,0,1,0,0,0.,0.,1.,1.,0.,0.,1.,1.,1.,1.,1.,1.,0.625,     141P    129
-0.5,0.5,-0.625,-0.5,0.5,0.625,0.,0.5,-0.625,0.,0.5,0.,1.,0.,1.;     141P    130
508,4,0,117,9,1,0,0,117,4,0,0,0,117,5,0,0,0,117,3,1,0;               143P    131
510,141,1,1,143;                                                     145P    132
314,69.9999988079071,69.9999988079071,69.9999988079071,10HMixedC     147P    133
olor;                                                                147P    134
128,1,1,1,1,0,0,1,0,0,0.,0.,1.,1.,0.,0.,1.,1.,1.,1.,1.,1.,           149P    135
-0.625,0.,0.5,-0.625,0.,-0.5,0.625,0.,0.5,0.625,0.,-0.5,0.,1.,       149P    136
0.,1.;                                                               149P    137
508,4,0,117,12,0,0,0,117,9,0,0,0,117,10,0,0,0,117,11,0,0;            151P    138
510,149,1,1,151;                                                     153P    139
314,69.9999988079071,69.9999988079071,69.9999988079071,10HMixedC     155P    140
olor;                                                                155P    141
128,1,1,1,1,0,0,1,0,0,0.,0.,1.,1.,0.,0.,1.,1.,1.,1.,1.,1.,           157P    142
-0.625,-0.5,0.5,-0.625,-0.5,-0.5,0.625,-0.5,0.5,0.625,-0.5,-0.5,     157P    143
0.,1.,0.,1.;                                                         157P    144
508,4,0,117,8,1,0,0,117,7,1,0,0,117,6,1,0,0,117,5,1,0;               159P    145
510,157,1,1,159;                                                     161P    146
514,6,121,0,129,0,137,0,145,0,153,0,161,1;                           163P    147
186,163,1,0;                                                         165P    148
308,0,7HDEFAULT,1,165;                                               167P    149
408,167,0.,0.,0.,1.;                                                 169P    150
124,1.,0.,-0.,0.,0.,-1.,0.,0.5,-0.,0.,-1.,0.;                        171P    151
408,167,0.,0.,0.,1.;                                                 173P    152
308,1,7HDEFAULT,3,83,169,173;                                        175P    153
408,175,0.,0.,0.,1.;                                                 177P    154
S      1G      4D    178P    154                                        T      1
