ISO-10303-21;
HEADER;
FILE_DESCRIPTION( ( 'Unknown' ), '1' );
FILE_NAME( 'I:/User_Groups_Only/17_EMC_Product_&_Development/Documentations/1_ArtikelStamm/PG_1/WE_Fe_Wire/Grafiken_Zeichnungen/CAD_Zeichnungswesen/CAD_aktuell/74276032_5,0mm/3d_view/74276032.stp', 'Unknown', ( 'Unknown' ), ( 'Unknown' ), 'XStep 1.0', 'Unknown', '  ' );
FILE_SCHEMA( ( 'automotive_design' ) );
ENDSEC;
DATA;
#1 = MECHANICAL_DESIGN_GEOMETRIC_PRESENTATION_REPRESENTATION( ' ', ( #18, #19, #20, #21 ), #14 );
#2 = PRODUCT_DEFINITION_CONTEXT( '', #22, 'design' );
#3 = APPLICATION_PROTOCOL_DEFINITION( 'INTERNATIONAL STANDARD', 'automotive_design', 1994, #22 );
#4 = PRODUCT_CATEGORY_RELATIONSHIP( 'NONE', 'NONE', #23, #24 );
#5 = SHAPE_DEFINITION_REPRESENTATION( #25, #26 );
#6 = PRODUCT_DEFINITION_CONTEXT( '', #27, 'design' );
#7 = APPLICATION_PROTOCOL_DEFINITION( 'INTERNATIONAL STANDARD', 'automotive_design', 1994, #27 );
#8 = PRODUCT_CATEGORY_RELATIONSHIP( 'NONE', 'NONE', #28, #29 );
#9 = SHAPE_DEFINITION_REPRESENTATION( #30, #31 );
#10 = PRODUCT_DEFINITION_CONTEXT( '', #32, 'design' );
#11 = APPLICATION_PROTOCOL_DEFINITION( 'INTERNATIONAL STANDARD', 'automotive_design', 1994, #32 );
#12 = PRODUCT_CATEGORY_RELATIONSHIP( 'NONE', 'NONE', #33, #34 );
#13 = SHAPE_DEFINITION_REPRESENTATION( #35, #36 );
#14 =  ( GEOMETRIC_REPRESENTATION_CONTEXT( 3 )GLOBAL_UNCERTAINTY_ASSIGNED_CONTEXT( ( #39 ) )GLOBAL_UNIT_ASSIGNED_CONTEXT( ( #41, #42, #43 ) )REPRESENTATION_CONTEXT( 'NONE', 'WORKSPACE' ) );
#18 = STYLED_ITEM( '', ( #45 ), #46 );
#19 = STYLED_ITEM( '', ( #47 ), #48 );
#20 = STYLED_ITEM( '', ( #49 ), #50 );
#21 = STYLED_ITEM( '', ( #51 ), #52 );
#22 = APPLICATION_CONTEXT( ' ' );
#23 = PRODUCT_CATEGORY( 'part', 'NONE' );
#24 = PRODUCT_RELATED_PRODUCT_CATEGORY( 'detail', ' ', ( #53 ) );
#25 = PRODUCT_DEFINITION_SHAPE( 'NONE', 'NONE', #54 );
#26 = ADVANCED_BREP_SHAPE_REPRESENTATION( 'Assem1', ( #55, #56, #57 ), #14 );
#27 = APPLICATION_CONTEXT( ' ' );
#28 = PRODUCT_CATEGORY( 'part', 'NONE' );
#29 = PRODUCT_RELATED_PRODUCT_CATEGORY( 'detail', ' ', ( #58 ) );
#30 = PRODUCT_DEFINITION_SHAPE( 'NONE', 'NONE', #59 );
#31 = ADVANCED_BREP_SHAPE_REPRESENTATION( 'Draht', ( #60 ), #14 );
#32 = APPLICATION_CONTEXT( ' ' );
#33 = PRODUCT_CATEGORY( 'part', 'NONE' );
#34 = PRODUCT_RELATED_PRODUCT_CATEGORY( 'detail', ' ', ( #61 ) );
#35 = PRODUCT_DEFINITION_SHAPE( 'NONE', 'NONE', #62 );
#36 = ADVANCED_BREP_SHAPE_REPRESENTATION( 'Kern', ( #63 ), #14 );
#39 = UNCERTAINTY_MEASURE_WITH_UNIT( LENGTH_MEASURE( 0.00100000000000000 ), #41, '', '' );
#41 =  ( CONVERSION_BASED_UNIT( 'MILLIMETRE', #66 )LENGTH_UNIT(  )NAMED_UNIT( #69 ) );
#42 =  ( NAMED_UNIT( #71 )PLANE_ANGLE_UNIT(  )SI_UNIT( $, .RADIAN. ) );
#43 =  ( NAMED_UNIT( #71 )SOLID_ANGLE_UNIT(  )SI_UNIT( $, .STERADIAN. ) );
#45 = PRESENTATION_STYLE_ASSIGNMENT( ( #77 ) );
#46 = ADVANCED_FACE( '', ( #78, #79 ), #80, .T. );
#47 = PRESENTATION_STYLE_ASSIGNMENT( ( #81 ) );
#48 = ADVANCED_FACE( '', ( #82, #83 ), #84, .T. );
#49 = PRESENTATION_STYLE_ASSIGNMENT( ( #85 ) );
#50 = ADVANCED_FACE( '', ( #86, #87 ), #88, .F. );
#51 = PRESENTATION_STYLE_ASSIGNMENT( ( #89 ) );
#52 = ADVANCED_FACE( '', ( #90, #91 ), #92, .F. );
#53 = PRODUCT( 'Assem1', 'Assem1', 'PART-Assem1-DESC', ( #93 ) );
#54 = PRODUCT_DEFINITION( 'NONE', 'NONE', #94, #2 );
#55 = MAPPED_ITEM( '', #95, #96 );
#56 = MAPPED_ITEM( '', #97, #98 );
#57 = AXIS2_PLACEMENT_3D( '', #99, #100, #101 );
#58 = PRODUCT( 'Draht', 'Draht', 'PART-Draht-DESC', ( #102 ) );
#59 = PRODUCT_DEFINITION( 'NONE', 'NONE', #103, #6 );
#60 = MANIFOLD_SOLID_BREP( 'Draht', #104 );
#61 = PRODUCT( 'Kern', 'Kern', 'PART-Kern-DESC', ( #105 ) );
#62 = PRODUCT_DEFINITION( 'NONE', 'NONE', #106, #10 );
#63 = MANIFOLD_SOLID_BREP( 'Kern', #107 );
#66 = LENGTH_MEASURE_WITH_UNIT( LENGTH_MEASURE( 1.00000000000000 ), #108 );
#69 = DIMENSIONAL_EXPONENTS( 1.00000000000000, 0.000000000000000, 0.000000000000000, 0.000000000000000, 0.000000000000000, 0.000000000000000, 0.000000000000000 );
#71 = DIMENSIONAL_EXPONENTS( 0.000000000000000, 0.000000000000000, 0.000000000000000, 0.000000000000000, 0.000000000000000, 0.000000000000000, 0.000000000000000 );
#77 = SURFACE_STYLE_USAGE( .BOTH., #109 );
#78 = FACE_OUTER_BOUND( '', #110, .T. );
#79 = FACE_OUTER_BOUND( '', #111, .T. );
#80 = CYLINDRICAL_SURFACE( '', #112, 1.75000000000000 );
#81 = SURFACE_STYLE_USAGE( .BOTH., #113 );
#82 = FACE_BOUND( '', #114, .T. );
#83 = FACE_OUTER_BOUND( '', #115, .T. );
#84 = PLANE( '', #116 );
#85 = SURFACE_STYLE_USAGE( .BOTH., #117 );
#86 = FACE_OUTER_BOUND( '', #118, .T. );
#87 = FACE_OUTER_BOUND( '', #119, .T. );
#88 = CYLINDRICAL_SURFACE( '', #120, 0.325000000000000 );
#89 = SURFACE_STYLE_USAGE( .BOTH., #121 );
#90 = FACE_BOUND( '', #122, .T. );
#91 = FACE_OUTER_BOUND( '', #123, .T. );
#92 = PLANE( '', #124 );
#93 = PRODUCT_CONTEXT( '', #22, 'mechanical' );
#94 = PRODUCT_DEFINITION_FORMATION_WITH_SPECIFIED_SOURCE( ' ', 'NONE', #53, .NOT_KNOWN. );
#95 = REPRESENTATION_MAP( #57, #31 );
#96 = AXIS2_PLACEMENT_3D( '', #125, #126, #127 );
#97 = REPRESENTATION_MAP( #57, #36 );
#98 = AXIS2_PLACEMENT_3D( '', #128, #129, #130 );
#99 = CARTESIAN_POINT( '', ( 0.000000000000000, 0.000000000000000, 0.000000000000000 ) );
#100 = DIRECTION( '', ( 0.000000000000000, 0.000000000000000, 1.00000000000000 ) );
#101 = DIRECTION( '', ( 1.00000000000000, 0.000000000000000, 0.000000000000000 ) );
#102 = PRODUCT_CONTEXT( '', #27, 'mechanical' );
#103 = PRODUCT_DEFINITION_FORMATION_WITH_SPECIFIED_SOURCE( ' ', 'NONE', #58, .NOT_KNOWN. );
#104 = CLOSED_SHELL( '', ( #131, #132, #133 ) );
#105 = PRODUCT_CONTEXT( '', #32, 'mechanical' );
#106 = PRODUCT_DEFINITION_FORMATION_WITH_SPECIFIED_SOURCE( ' ', 'NONE', #61, .NOT_KNOWN. );
#107 = CLOSED_SHELL( '', ( #50, #46, #48, #52 ) );
#108 =  ( NAMED_UNIT( #69 )LENGTH_UNIT(  )SI_UNIT( .MILLI., .METRE. ) );
#109 = SURFACE_SIDE_STYLE( '', ( #135 ) );
#110 = EDGE_LOOP( '', ( #136 ) );
#111 = EDGE_LOOP( '', ( #137 ) );
#112 = AXIS2_PLACEMENT_3D( '', #138, #139, #140 );
#113 = SURFACE_SIDE_STYLE( '', ( #141 ) );
#114 = EDGE_LOOP( '', ( #142 ) );
#115 = EDGE_LOOP( '', ( #143 ) );
#116 = AXIS2_PLACEMENT_3D( '', #144, #145, #146 );
#117 = SURFACE_SIDE_STYLE( '', ( #147 ) );
#118 = EDGE_LOOP( '', ( #148 ) );
#119 = EDGE_LOOP( '', ( #149 ) );
#120 = AXIS2_PLACEMENT_3D( '', #150, #151, #152 );
#121 = SURFACE_SIDE_STYLE( '', ( #153 ) );
#122 = EDGE_LOOP( '', ( #154 ) );
#123 = EDGE_LOOP( '', ( #155 ) );
#124 = AXIS2_PLACEMENT_3D( '', #156, #157, #158 );
#125 = CARTESIAN_POINT( '', ( 0.000000000000000, 0.000000000000000, 0.000000000000000 ) );
#126 = DIRECTION( '', ( 0.000000000000000, 0.000000000000000, 1.00000000000000 ) );
#127 = DIRECTION( '', ( 1.00000000000000, 0.000000000000000, 0.000000000000000 ) );
#128 = CARTESIAN_POINT( '', ( 0.000000000000000, 0.000000000000000, 0.000000000000000 ) );
#129 = DIRECTION( '', ( 0.000000000000000, 0.000000000000000, 1.00000000000000 ) );
#130 = DIRECTION( '', ( 1.00000000000000, 0.000000000000000, 0.000000000000000 ) );
#131 = ADVANCED_FACE( '', ( #159, #160 ), #161, .T. );
#132 = ADVANCED_FACE( '', ( #162 ), #163, .T. );
#133 = ADVANCED_FACE( '', ( #164 ), #165, .F. );
#135 = SURFACE_STYLE_FILL_AREA( #166 );
#136 = ORIENTED_EDGE( '', *, *, #167, .T. );
#137 = ORIENTED_EDGE( '', *, *, #168, .F. );
#138 = CARTESIAN_POINT( '', ( 2.50000000000000, 0.000000000000000, 3.67273485929464E-015 ) );
#139 = DIRECTION( '', ( 1.00000000000000, -0.000000000000000, -0.000000000000000 ) );
#140 = DIRECTION( '', ( 0.000000000000000, 0.000000000000000, 1.00000000000000 ) );
#141 = SURFACE_STYLE_FILL_AREA( #169 );
#142 = ORIENTED_EDGE( '', *, *, #170, .F. );
#143 = ORIENTED_EDGE( '', *, *, #168, .T. );
#144 = CARTESIAN_POINT( '', ( -2.50000000000000, 0.000000000000000, 3.67273485929464E-015 ) );
#145 = DIRECTION( '', ( -1.00000000000000, 6.12303176911189E-017, 0.000000000000000 ) );
#146 = DIRECTION( '', ( -6.12303176911189E-017, -1.00000000000000, 0.000000000000000 ) );
#147 = SURFACE_STYLE_FILL_AREA( #171 );
#148 = ORIENTED_EDGE( '', *, *, #172, .F. );
#149 = ORIENTED_EDGE( '', *, *, #170, .T. );
#150 = CARTESIAN_POINT( '', ( 2.50000000000000, 0.000000000000000, 3.48977574268771E-016 ) );
#151 = DIRECTION( '', ( 1.00000000000000, -0.000000000000000, -0.000000000000000 ) );
#152 = DIRECTION( '', ( 0.000000000000000, 0.000000000000000, 1.00000000000000 ) );
#153 = SURFACE_STYLE_FILL_AREA( #173 );
#154 = ORIENTED_EDGE( '', *, *, #172, .T. );
#155 = ORIENTED_EDGE( '', *, *, #167, .F. );
#156 = CARTESIAN_POINT( '', ( 2.50000000000000, 0.000000000000000, 3.67273485929464E-015 ) );
#157 = DIRECTION( '', ( -1.00000000000000, 6.12303176911189E-017, 0.000000000000000 ) );
#158 = DIRECTION( '', ( -6.12303176911189E-017, -1.00000000000000, 0.000000000000000 ) );
#159 = FACE_OUTER_BOUND( '', #174, .T. );
#160 = FACE_OUTER_BOUND( '', #175, .T. );
#161 = CYLINDRICAL_SURFACE( '', #176, 0.325000000000000 );
#162 = FACE_OUTER_BOUND( '', #177, .T. );
#163 = PLANE( '', #178 );
#164 = FACE_OUTER_BOUND( '', #179, .T. );
#165 = PLANE( '', #180 );
#166 = FILL_AREA_STYLE( '', ( #181 ) );
#167 = EDGE_CURVE( '', #182, #182, #183, .T. );
#168 = EDGE_CURVE( '', #184, #184, #185, .T. );
#169 = FILL_AREA_STYLE( '', ( #186 ) );
#170 = EDGE_CURVE( '', #187, #187, #188, .T. );
#171 = FILL_AREA_STYLE( '', ( #189 ) );
#172 = EDGE_CURVE( '', #190, #190, #191, .T. );
#173 = FILL_AREA_STYLE( '', ( #192 ) );
#174 = EDGE_LOOP( '', ( #193 ) );
#175 = EDGE_LOOP( '', ( #194 ) );
#176 = AXIS2_PLACEMENT_3D( '', #195, #196, #197 );
#177 = EDGE_LOOP( '', ( #198 ) );
#178 = AXIS2_PLACEMENT_3D( '', #199, #200, #201 );
#179 = EDGE_LOOP( '', ( #202 ) );
#180 = AXIS2_PLACEMENT_3D( '', #203, #204, #205 );
#181 = FILL_AREA_STYLE_COLOUR( '', #206 );
#182 = VERTEX_POINT( '', #207 );
#183 = CIRCLE( '', #208, 1.75000000000000 );
#184 = VERTEX_POINT( '', #209 );
#185 = CIRCLE( '', #210, 1.75000000000000 );
#186 = FILL_AREA_STYLE_COLOUR( '', #211 );
#187 = VERTEX_POINT( '', #212 );
#188 = CIRCLE( '', #213, 0.325000000000000 );
#189 = FILL_AREA_STYLE_COLOUR( '', #214 );
#190 = VERTEX_POINT( '', #215 );
#191 = CIRCLE( '', #216, 0.325000000000000 );
#192 = FILL_AREA_STYLE_COLOUR( '', #217 );
#193 = ORIENTED_EDGE( '', *, *, #218, .T. );
#194 = ORIENTED_EDGE( '', *, *, #219, .F. );
#195 = CARTESIAN_POINT( '', ( 29.2000000000000, 0.000000000000000, 3.48977574268771E-016 ) );
#196 = DIRECTION( '', ( 1.00000000000000, -0.000000000000000, -0.000000000000000 ) );
#197 = DIRECTION( '', ( 0.000000000000000, 0.000000000000000, 1.00000000000000 ) );
#198 = ORIENTED_EDGE( '', *, *, #219, .T. );
#199 = CARTESIAN_POINT( '', ( -29.2000000000000, 0.000000000000000, 3.48977574268771E-016 ) );
#200 = DIRECTION( '', ( -1.00000000000000, 6.12303176911189E-017, 0.000000000000000 ) );
#201 = DIRECTION( '', ( -6.12303176911189E-017, -1.00000000000000, 0.000000000000000 ) );
#202 = ORIENTED_EDGE( '', *, *, #218, .F. );
#203 = CARTESIAN_POINT( '', ( 29.2000000000000, 0.000000000000000, 3.48977574268771E-016 ) );
#204 = DIRECTION( '', ( -1.00000000000000, 6.12303176911189E-017, 0.000000000000000 ) );
#205 = DIRECTION( '', ( -6.12303176911189E-017, -1.00000000000000, 0.000000000000000 ) );
#206 = COLOUR_RGB( '', 0.200000002980232, 0.200000002980232, 0.200000002980232 );
#207 = CARTESIAN_POINT( '', ( 2.50000000000000, 1.75000000000000, 3.67273485929464E-015 ) );
#208 = AXIS2_PLACEMENT_3D( '', #220, #221, #222 );
#209 = CARTESIAN_POINT( '', ( -2.50000000000000, 1.75000000000000, 3.67273485929464E-015 ) );
#210 = AXIS2_PLACEMENT_3D( '', #223, #224, #225 );
#211 = COLOUR_RGB( '', 0.200000002980232, 0.200000002980232, 0.200000002980232 );
#212 = CARTESIAN_POINT( '', ( -2.50000000000000, 0.325000000000000, 3.48977574268771E-016 ) );
#213 = AXIS2_PLACEMENT_3D( '', #226, #227, #228 );
#214 = COLOUR_RGB( '', 0.200000002980232, 0.200000002980232, 0.200000002980232 );
#215 = CARTESIAN_POINT( '', ( 2.50000000000000, 0.325000000000000, 3.48977574268771E-016 ) );
#216 = AXIS2_PLACEMENT_3D( '', #229, #230, #231 );
#217 = COLOUR_RGB( '', 0.200000002980232, 0.200000002980232, 0.200000002980232 );
#218 = EDGE_CURVE( '', #232, #232, #233, .T. );
#219 = EDGE_CURVE( '', #234, #234, #235, .T. );
#220 = CARTESIAN_POINT( '', ( 2.50000000000000, 0.000000000000000, 3.67273485929464E-015 ) );
#221 = DIRECTION( '', ( -1.00000000000000, 6.12303176911189E-017, 0.000000000000000 ) );
#222 = DIRECTION( '', ( 6.12303176911189E-017, 1.00000000000000, 0.000000000000000 ) );
#223 = CARTESIAN_POINT( '', ( -2.50000000000000, 0.000000000000000, 3.67273485929464E-015 ) );
#224 = DIRECTION( '', ( -1.00000000000000, 6.12303176911189E-017, 0.000000000000000 ) );
#225 = DIRECTION( '', ( 6.12303176911189E-017, 1.00000000000000, 0.000000000000000 ) );
#226 = CARTESIAN_POINT( '', ( -2.50000000000000, 0.000000000000000, 3.48977574268771E-016 ) );
#227 = DIRECTION( '', ( -1.00000000000000, 6.12303176911189E-017, 0.000000000000000 ) );
#228 = DIRECTION( '', ( 6.12303176911189E-017, 1.00000000000000, 0.000000000000000 ) );
#229 = CARTESIAN_POINT( '', ( 2.50000000000000, 0.000000000000000, 3.48977574268771E-016 ) );
#230 = DIRECTION( '', ( -1.00000000000000, 6.12303176911189E-017, 0.000000000000000 ) );
#231 = DIRECTION( '', ( 6.12303176911189E-017, 1.00000000000000, 0.000000000000000 ) );
#232 = VERTEX_POINT( '', #236 );
#233 = CIRCLE( '', #237, 0.325000000000000 );
#234 = VERTEX_POINT( '', #238 );
#235 = CIRCLE( '', #239, 0.325000000000000 );
#236 = CARTESIAN_POINT( '', ( 29.2000000000000, 0.325000000000000, 3.48977574268771E-016 ) );
#237 = AXIS2_PLACEMENT_3D( '', #240, #241, #242 );
#238 = CARTESIAN_POINT( '', ( -29.2000000000000, 0.325000000000000, 3.48977574268771E-016 ) );
#239 = AXIS2_PLACEMENT_3D( '', #243, #244, #245 );
#240 = CARTESIAN_POINT( '', ( 29.2000000000000, 0.000000000000000, 3.48977574268771E-016 ) );
#241 = DIRECTION( '', ( -1.00000000000000, 6.12303176911189E-017, 0.000000000000000 ) );
#242 = DIRECTION( '', ( 6.12303176911189E-017, 1.00000000000000, 0.000000000000000 ) );
#243 = CARTESIAN_POINT( '', ( -29.2000000000000, 0.000000000000000, 3.48977574268771E-016 ) );
#244 = DIRECTION( '', ( -1.00000000000000, 6.12303176911189E-017, 0.000000000000000 ) );
#245 = DIRECTION( '', ( 6.12303176911189E-017, 1.00000000000000, 0.000000000000000 ) );
ENDSEC;
END-ISO-10303-21;
