ISO-10303-21;
HEADER;
/* Generated by software containing ST-Developer
 * from STEP Tools, Inc. (www.steptools.com) 
 */
/* OPTION: strings as raw bytes, not using required /X/ escapes */

FILE_DESCRIPTION(
/* description */ ('Unknown'),
/* implementation_level */ '2;1');

FILE_NAME(
/* name */ '700970600',
/* time_stamp */ '2019-01-03T15:53:48+01:00',
/* author */ ('Unknown'),
/* organization */ ('Unknown'),
/* preprocessor_version */ 'ST-DEVELOPER v16.7',
/* originating_system */ 'DEX',
/* authorisation */ $);

FILE_SCHEMA (('AUTOMOTIVE_DESIGN {1 0 10303 214 3 1 1}'));
ENDSEC;

DATA;
#10=PROPERTY_DEFINITION_REPRESENTATION(#14,#12);
#11=PROPERTY_DEFINITION_REPRESENTATION(#15,#13);
#12=REPRESENTATION('',(#16),#544);
#13=REPRESENTATION('',(#17),#544);
#14=PROPERTY_DEFINITION('pmi validation property','',#553);
#15=PROPERTY_DEFINITION('pmi validation property','',#553);
#16=VALUE_REPRESENTATION_ITEM('number of annotations',COUNT_MEASURE(0.));
#17=VALUE_REPRESENTATION_ITEM('number of views',COUNT_MEASURE(0.));
#18=DEGENERATE_TOROIDAL_SURFACE('',#357,0.125,0.5,.T.);
#19=CONTEXT_DEPENDENT_SHAPE_REPRESENTATION(#23,#555);
#20=CONTEXT_DEPENDENT_SHAPE_REPRESENTATION(#24,#557);
#21=NEXT_ASSEMBLY_USAGE_OCCURRENCE('700970600_holder',
'700970600_holder','700970600_holder',#558,#559,'');
#22=NEXT_ASSEMBLY_USAGE_OCCURRENCE('700970600_pin','700970600_pin',
'700970600_pin',#558,#560,'');
#23=(
REPRESENTATION_RELATIONSHIP(' ',' ',#317,#318)
REPRESENTATION_RELATIONSHIP_WITH_TRANSFORMATION(#25)
SHAPE_REPRESENTATION_RELATIONSHIP()
);
#24=(
REPRESENTATION_RELATIONSHIP(' ',' ',#319,#318)
REPRESENTATION_RELATIONSHIP_WITH_TRANSFORMATION(#26)
SHAPE_REPRESENTATION_RELATIONSHIP()
);
#25=ITEM_DEFINED_TRANSFORMATION(' ',' ',#320,#346);
#26=ITEM_DEFINED_TRANSFORMATION(' ',' ',#320,#358);
#27=SHAPE_REPRESENTATION_RELATIONSHIP('','',#317,#29);
#28=SHAPE_REPRESENTATION_RELATIONSHIP('','',#319,#30);
#29=ADVANCED_BREP_SHAPE_REPRESENTATION('',(#312),#545);
#30=ADVANCED_BREP_SHAPE_REPRESENTATION('',(#313),#546);
#31=CYLINDRICAL_SURFACE('',#328,2.4);
#32=CYLINDRICAL_SURFACE('',#332,1.00000000000002);
#33=CYLINDRICAL_SURFACE('',#337,0.65);
#34=CYLINDRICAL_SURFACE('',#349,2.4);
#35=CYLINDRICAL_SURFACE('',#353,0.625);
#36=B_SPLINE_CURVE_WITH_KNOTS('',3,(#461,#462,#463,#464,#465,#466,#467),
 .UNSPECIFIED.,.F.,.F.,(4,1,1,1,4),(0.00311895778857285,0.00347289532301768,
0.00382683285746252,0.00418077039190736,0.0045347079263522),
 .UNSPECIFIED.);
#37=B_SPLINE_CURVE_WITH_KNOTS('',3,(#510,#511,#512,#513,#514,#515,#516),
 .UNSPECIFIED.,.F.,.F.,(4,1,1,1,4),(0.00311895778857284,0.00347289532301768,
0.00382683285746252,0.00418077039190736,0.0045347079263522),
 .UNSPECIFIED.);
#38=CONICAL_SURFACE('',#323,0.65,1.02974425867665);
#39=CONICAL_SURFACE('',#341,0.65,1.02974425867665);
#40=CIRCLE('',#322,1.00000000000004);
#41=CIRCLE('',#324,0.65);
#42=CIRCLE('',#326,0.65);
#43=CIRCLE('',#327,2.4);
#44=CIRCLE('',#329,2.4);
#45=CIRCLE('',#331,1.);
#46=CIRCLE('',#333,1.00000000000002);
#47=CIRCLE('',#334,1.00000000000002);
#48=CIRCLE('',#335,1.00000000000004);
#49=CIRCLE('',#338,0.65);
#50=CIRCLE('',#339,0.65);
#51=CIRCLE('',#340,0.65);
#52=CIRCLE('',#348,2.4);
#53=CIRCLE('',#350,2.4);
#54=CIRCLE('',#352,0.625);
#55=CIRCLE('',#354,0.625);
#56=CIRCLE('',#356,0.125);
#57=ORIENTED_EDGE('',*,*,#123,.T.);
#58=ORIENTED_EDGE('',*,*,#124,.F.);
#59=ORIENTED_EDGE('',*,*,#125,.F.);
#60=ORIENTED_EDGE('',*,*,#126,.T.);
#61=ORIENTED_EDGE('',*,*,#127,.T.);
#62=ORIENTED_EDGE('',*,*,#128,.T.);
#63=ORIENTED_EDGE('',*,*,#129,.T.);
#64=ORIENTED_EDGE('',*,*,#128,.F.);
#65=ORIENTED_EDGE('',*,*,#130,.T.);
#66=ORIENTED_EDGE('',*,*,#129,.F.);
#67=ORIENTED_EDGE('',*,*,#131,.F.);
#68=ORIENTED_EDGE('',*,*,#132,.F.);
#69=ORIENTED_EDGE('',*,*,#124,.T.);
#70=ORIENTED_EDGE('',*,*,#133,.F.);
#71=ORIENTED_EDGE('',*,*,#134,.F.);
#72=ORIENTED_EDGE('',*,*,#135,.F.);
#73=ORIENTED_EDGE('',*,*,#136,.T.);
#74=ORIENTED_EDGE('',*,*,#137,.F.);
#75=ORIENTED_EDGE('',*,*,#130,.F.);
#76=ORIENTED_EDGE('',*,*,#138,.F.);
#77=ORIENTED_EDGE('',*,*,#136,.F.);
#78=ORIENTED_EDGE('',*,*,#139,.T.);
#79=ORIENTED_EDGE('',*,*,#140,.T.);
#80=ORIENTED_EDGE('',*,*,#125,.T.);
#81=ORIENTED_EDGE('',*,*,#141,.T.);
#82=ORIENTED_EDGE('',*,*,#142,.T.);
#83=ORIENTED_EDGE('',*,*,#143,.T.);
#84=ORIENTED_EDGE('',*,*,#144,.T.);
#85=ORIENTED_EDGE('',*,*,#145,.T.);
#86=ORIENTED_EDGE('',*,*,#127,.F.);
#87=ORIENTED_EDGE('',*,*,#144,.F.);
#88=ORIENTED_EDGE('',*,*,#146,.T.);
#89=ORIENTED_EDGE('',*,*,#134,.T.);
#90=ORIENTED_EDGE('',*,*,#147,.F.);
#91=ORIENTED_EDGE('',*,*,#139,.F.);
#92=ORIENTED_EDGE('',*,*,#148,.T.);
#93=ORIENTED_EDGE('',*,*,#131,.T.);
#94=ORIENTED_EDGE('',*,*,#149,.T.);
#95=ORIENTED_EDGE('',*,*,#142,.F.);
#96=ORIENTED_EDGE('',*,*,#150,.F.);
#97=ORIENTED_EDGE('',*,*,#133,.T.);
#98=ORIENTED_EDGE('',*,*,#123,.F.);
#99=ORIENTED_EDGE('',*,*,#132,.T.);
#100=ORIENTED_EDGE('',*,*,#150,.T.);
#101=ORIENTED_EDGE('',*,*,#141,.F.);
#102=ORIENTED_EDGE('',*,*,#126,.F.);
#103=ORIENTED_EDGE('',*,*,#140,.F.);
#104=ORIENTED_EDGE('',*,*,#147,.T.);
#105=ORIENTED_EDGE('',*,*,#137,.T.);
#106=ORIENTED_EDGE('',*,*,#138,.T.);
#107=ORIENTED_EDGE('',*,*,#135,.T.);
#108=ORIENTED_EDGE('',*,*,#148,.F.);
#109=ORIENTED_EDGE('',*,*,#145,.F.);
#110=ORIENTED_EDGE('',*,*,#146,.F.);
#111=ORIENTED_EDGE('',*,*,#143,.F.);
#112=ORIENTED_EDGE('',*,*,#149,.F.);
#113=ORIENTED_EDGE('',*,*,#151,.T.);
#114=ORIENTED_EDGE('',*,*,#152,.T.);
#115=ORIENTED_EDGE('',*,*,#151,.F.);
#116=ORIENTED_EDGE('',*,*,#153,.T.);
#117=ORIENTED_EDGE('',*,*,#152,.F.);
#118=ORIENTED_EDGE('',*,*,#154,.T.);
#119=ORIENTED_EDGE('',*,*,#153,.F.);
#120=ORIENTED_EDGE('',*,*,#155,.T.);
#121=ORIENTED_EDGE('',*,*,#155,.F.);
#122=ORIENTED_EDGE('',*,*,#154,.F.);
#123=EDGE_CURVE('',#156,#157,#181,.T.);
#124=EDGE_CURVE('',#156,#157,#40,.T.);
#125=EDGE_CURVE('',#158,#159,#41,.T.);
#126=EDGE_CURVE('',#158,#159,#36,.T.);
#127=EDGE_CURVE('',#160,#160,#42,.T.);
#128=EDGE_CURVE('',#161,#161,#43,.T.);
#129=EDGE_CURVE('',#162,#162,#44,.T.);
#130=EDGE_CURVE('',#163,#163,#45,.T.);
#131=EDGE_CURVE('',#164,#165,#46,.F.);
#132=EDGE_CURVE('',#156,#164,#182,.T.);
#133=EDGE_CURVE('',#166,#157,#183,.F.);
#134=EDGE_CURVE('',#167,#166,#47,.F.);
#135=EDGE_CURVE('',#168,#167,#184,.T.);
#136=EDGE_CURVE('',#168,#169,#48,.T.);
#137=EDGE_CURVE('',#165,#169,#185,.F.);
#138=EDGE_CURVE('',#169,#168,#186,.T.);
#139=EDGE_CURVE('',#170,#171,#49,.F.);
#140=EDGE_CURVE('',#171,#158,#187,.T.);
#141=EDGE_CURVE('',#159,#172,#188,.F.);
#142=EDGE_CURVE('',#172,#173,#50,.F.);
#143=EDGE_CURVE('',#173,#174,#189,.T.);
#144=EDGE_CURVE('',#174,#175,#51,.T.);
#145=EDGE_CURVE('',#175,#170,#190,.F.);
#146=EDGE_CURVE('',#174,#175,#37,.F.);
#147=EDGE_CURVE('',#171,#166,#191,.T.);
#148=EDGE_CURVE('',#170,#167,#192,.T.);
#149=EDGE_CURVE('',#165,#173,#193,.T.);
#150=EDGE_CURVE('',#164,#172,#194,.T.);
#151=EDGE_CURVE('',#176,#176,#52,.T.);
#152=EDGE_CURVE('',#177,#177,#53,.T.);
#153=EDGE_CURVE('',#178,#178,#54,.T.);
#154=EDGE_CURVE('',#179,#179,#55,.F.);
#155=EDGE_CURVE('',#180,#180,#56,.T.);
#156=VERTEX_POINT('',#454);
#157=VERTEX_POINT('',#455);
#158=VERTEX_POINT('',#459);
#159=VERTEX_POINT('',#460);
#160=VERTEX_POINT('',#470);
#161=VERTEX_POINT('',#472);
#162=VERTEX_POINT('',#475);
#163=VERTEX_POINT('',#478);
#164=VERTEX_POINT('',#481);
#165=VERTEX_POINT('',#482);
#166=VERTEX_POINT('',#485);
#167=VERTEX_POINT('',#487);
#168=VERTEX_POINT('',#489);
#169=VERTEX_POINT('',#491);
#170=VERTEX_POINT('',#497);
#171=VERTEX_POINT('',#498);
#172=VERTEX_POINT('',#501);
#173=VERTEX_POINT('',#503);
#174=VERTEX_POINT('',#505);
#175=VERTEX_POINT('',#507);
#176=VERTEX_POINT('',#528);
#177=VERTEX_POINT('',#531);
#178=VERTEX_POINT('',#534);
#179=VERTEX_POINT('',#537);
#180=VERTEX_POINT('',#540);
#181=LINE('',#453,#195);
#182=LINE('',#483,#196);
#183=LINE('',#484,#197);
#184=LINE('',#488,#198);
#185=LINE('',#492,#199);
#186=LINE('',#494,#200);
#187=LINE('',#499,#201);
#188=LINE('',#500,#202);
#189=LINE('',#504,#203);
#190=LINE('',#508,#204);
#191=LINE('',#518,#205);
#192=LINE('',#519,#206);
#193=LINE('',#521,#207);
#194=LINE('',#522,#208);
#195=VECTOR('',#363,1000.);
#196=VECTOR('',#388,1000.);
#197=VECTOR('',#389,1000.);
#198=VECTOR('',#392,1000.);
#199=VECTOR('',#395,1000.);
#200=VECTOR('',#398,1000.);
#201=VECTOR('',#403,1000.);
#202=VECTOR('',#404,1000.);
#203=VECTOR('',#407,1000.);
#204=VECTOR('',#410,1000.);
#205=VECTOR('',#415,1000.);
#206=VECTOR('',#416,1000.);
#207=VECTOR('',#419,1000.);
#208=VECTOR('',#420,1000.);
#209=EDGE_LOOP('',(#57,#58));
#210=EDGE_LOOP('',(#59,#60));
#211=EDGE_LOOP('',(#61));
#212=EDGE_LOOP('',(#62));
#213=EDGE_LOOP('',(#63));
#214=EDGE_LOOP('',(#64));
#215=EDGE_LOOP('',(#65));
#216=EDGE_LOOP('',(#66));
#217=EDGE_LOOP('',(#67,#68,#69,#70,#71,#72,#73,#74));
#218=EDGE_LOOP('',(#75));
#219=EDGE_LOOP('',(#76,#77));
#220=EDGE_LOOP('',(#78,#79,#80,#81,#82,#83,#84,#85));
#221=EDGE_LOOP('',(#86));
#222=EDGE_LOOP('',(#87,#88));
#223=EDGE_LOOP('',(#89,#90,#91,#92));
#224=EDGE_LOOP('',(#93,#94,#95,#96));
#225=EDGE_LOOP('',(#97,#98,#99,#100,#101,#102,#103,#104));
#226=EDGE_LOOP('',(#105,#106,#107,#108,#109,#110,#111,#112));
#227=EDGE_LOOP('',(#113));
#228=EDGE_LOOP('',(#114));
#229=EDGE_LOOP('',(#115));
#230=EDGE_LOOP('',(#116));
#231=EDGE_LOOP('',(#117));
#232=EDGE_LOOP('',(#118));
#233=EDGE_LOOP('',(#119));
#234=EDGE_LOOP('',(#120));
#235=EDGE_LOOP('',(#121));
#236=EDGE_LOOP('',(#122));
#237=FACE_BOUND('',#209,.T.);
#238=FACE_BOUND('',#210,.T.);
#239=FACE_BOUND('',#211,.T.);
#240=FACE_BOUND('',#212,.T.);
#241=FACE_BOUND('',#213,.T.);
#242=FACE_BOUND('',#214,.T.);
#243=FACE_BOUND('',#215,.T.);
#244=FACE_BOUND('',#216,.T.);
#245=FACE_BOUND('',#217,.T.);
#246=FACE_BOUND('',#218,.T.);
#247=FACE_BOUND('',#219,.T.);
#248=FACE_BOUND('',#220,.T.);
#249=FACE_BOUND('',#221,.T.);
#250=FACE_BOUND('',#222,.T.);
#251=FACE_BOUND('',#223,.T.);
#252=FACE_BOUND('',#224,.T.);
#253=FACE_BOUND('',#225,.T.);
#254=FACE_BOUND('',#226,.T.);
#255=FACE_BOUND('',#227,.T.);
#256=FACE_BOUND('',#228,.T.);
#257=FACE_BOUND('',#229,.T.);
#258=FACE_BOUND('',#230,.T.);
#259=FACE_BOUND('',#231,.T.);
#260=FACE_BOUND('',#232,.T.);
#261=FACE_BOUND('',#233,.T.);
#262=FACE_BOUND('',#234,.T.);
#263=FACE_BOUND('',#235,.T.);
#264=FACE_BOUND('',#236,.T.);
#265=PLANE('',#321);
#266=PLANE('',#325);
#267=PLANE('',#330);
#268=PLANE('',#336);
#269=PLANE('',#342);
#270=PLANE('',#343);
#271=PLANE('',#344);
#272=PLANE('',#345);
#273=PLANE('',#347);
#274=PLANE('',#351);
#275=PLANE('',#355);
#276=ADVANCED_FACE('',(#237),#265,.T.);
#277=ADVANCED_FACE('',(#238),#38,.F.);
#278=ADVANCED_FACE('',(#239,#240),#266,.T.);
#279=ADVANCED_FACE('',(#241,#242),#31,.T.);
#280=ADVANCED_FACE('',(#243,#244),#267,.T.);
#281=ADVANCED_FACE('',(#245,#246),#32,.T.);
#282=ADVANCED_FACE('',(#247),#268,.T.);
#283=ADVANCED_FACE('',(#248,#249),#33,.F.);
#284=ADVANCED_FACE('',(#250),#39,.F.);
#285=ADVANCED_FACE('',(#251),#269,.F.);
#286=ADVANCED_FACE('',(#252),#270,.F.);
#287=ADVANCED_FACE('',(#253),#271,.F.);
#288=ADVANCED_FACE('',(#254),#272,.F.);
#289=ADVANCED_FACE('',(#255),#273,.T.);
#290=ADVANCED_FACE('',(#256,#257),#34,.T.);
#291=ADVANCED_FACE('',(#258,#259),#274,.T.);
#292=ADVANCED_FACE('',(#260,#261),#35,.T.);
#293=ADVANCED_FACE('',(#262),#275,.T.);
#294=ADVANCED_FACE('',(#263,#264),#18,.T.);
#295=CLOSED_SHELL('',(#276,#277,#278,#279,#280,#281,#282,#283,#284,#285,
#286,#287,#288));
#296=CLOSED_SHELL('',(#289,#290,#291,#292,#293,#294));
#297=STYLED_ITEM('',(#299),#312);
#298=STYLED_ITEM('',(#300),#313);
#299=PRESENTATION_STYLE_ASSIGNMENT((#301));
#300=PRESENTATION_STYLE_ASSIGNMENT((#302));
#301=SURFACE_STYLE_USAGE(.BOTH.,#303);
#302=SURFACE_STYLE_USAGE(.BOTH.,#304);
#303=SURFACE_SIDE_STYLE('',(#305));
#304=SURFACE_SIDE_STYLE('',(#306));
#305=SURFACE_STYLE_FILL_AREA(#307);
#306=SURFACE_STYLE_FILL_AREA(#308);
#307=FILL_AREA_STYLE('',(#309));
#308=FILL_AREA_STYLE('',(#310));
#309=FILL_AREA_STYLE_COLOUR('',#311);
#310=FILL_AREA_STYLE_COLOUR('',#311);
#311=COLOUR_RGB('',0.645180702209473,0.678915679454803,0.699999988079071);
#312=MANIFOLD_SOLID_BREP('',#295);
#313=MANIFOLD_SOLID_BREP('',#296);
#314=SHAPE_DEFINITION_REPRESENTATION(#554,#317);
#315=SHAPE_DEFINITION_REPRESENTATION(#553,#318);
#316=SHAPE_DEFINITION_REPRESENTATION(#556,#319);
#317=SHAPE_REPRESENTATION('700970600_holder',(#320),#545);
#318=SHAPE_REPRESENTATION('700970600_3D',(#320,#346,#358),#544);
#319=SHAPE_REPRESENTATION('700970600_pin',(#320),#546);
#320=AXIS2_PLACEMENT_3D('',#451,#359,#360);
#321=AXIS2_PLACEMENT_3D('',#452,#361,#362);
#322=AXIS2_PLACEMENT_3D('',#456,#364,#365);
#323=AXIS2_PLACEMENT_3D('',#457,#366,#367);
#324=AXIS2_PLACEMENT_3D('',#458,#368,#369);
#325=AXIS2_PLACEMENT_3D('',#468,#370,#371);
#326=AXIS2_PLACEMENT_3D('',#469,#372,#373);
#327=AXIS2_PLACEMENT_3D('',#471,#374,#375);
#328=AXIS2_PLACEMENT_3D('',#473,#376,#377);
#329=AXIS2_PLACEMENT_3D('',#474,#378,#379);
#330=AXIS2_PLACEMENT_3D('',#476,#380,#381);
#331=AXIS2_PLACEMENT_3D('',#477,#382,#383);
#332=AXIS2_PLACEMENT_3D('',#479,#384,#385);
#333=AXIS2_PLACEMENT_3D('',#480,#386,#387);
#334=AXIS2_PLACEMENT_3D('',#486,#390,#391);
#335=AXIS2_PLACEMENT_3D('',#490,#393,#394);
#336=AXIS2_PLACEMENT_3D('',#493,#396,#397);
#337=AXIS2_PLACEMENT_3D('',#495,#399,#400);
#338=AXIS2_PLACEMENT_3D('',#496,#401,#402);
#339=AXIS2_PLACEMENT_3D('',#502,#405,#406);
#340=AXIS2_PLACEMENT_3D('',#506,#408,#409);
#341=AXIS2_PLACEMENT_3D('',#509,#411,#412);
#342=AXIS2_PLACEMENT_3D('',#517,#413,#414);
#343=AXIS2_PLACEMENT_3D('',#520,#417,#418);
#344=AXIS2_PLACEMENT_3D('',#523,#421,#422);
#345=AXIS2_PLACEMENT_3D('',#524,#423,#424);
#346=AXIS2_PLACEMENT_3D('',#525,#425,#426);
#347=AXIS2_PLACEMENT_3D('',#526,#427,#428);
#348=AXIS2_PLACEMENT_3D('',#527,#429,#430);
#349=AXIS2_PLACEMENT_3D('',#529,#431,#432);
#350=AXIS2_PLACEMENT_3D('',#530,#433,#434);
#351=AXIS2_PLACEMENT_3D('',#532,#435,#436);
#352=AXIS2_PLACEMENT_3D('',#533,#437,#438);
#353=AXIS2_PLACEMENT_3D('',#535,#439,#440);
#354=AXIS2_PLACEMENT_3D('',#536,#441,#442);
#355=AXIS2_PLACEMENT_3D('',#538,#443,#444);
#356=AXIS2_PLACEMENT_3D('',#539,#445,#446);
#357=AXIS2_PLACEMENT_3D('',#541,#447,#448);
#358=AXIS2_PLACEMENT_3D('',#542,#449,#450);
#359=DIRECTION('',(0.,0.,1.));
#360=DIRECTION('',(1.,0.,0.));
#361=DIRECTION('',(0.,-1.,0.));
#362=DIRECTION('',(0.,0.,-1.));
#363=DIRECTION('',(-1.,0.,0.));
#364=DIRECTION('',(0.,1.,0.));
#365=DIRECTION('',(0.,0.,1.));
#366=DIRECTION('',(0.,1.,0.));
#367=DIRECTION('',(0.,0.,-1.));
#368=DIRECTION('',(0.,-1.,0.));
#369=DIRECTION('',(0.,0.,-1.));
#370=DIRECTION('',(0.,1.,0.));
#371=DIRECTION('',(0.,0.,1.));
#372=DIRECTION('',(0.,-1.,0.));
#373=DIRECTION('',(0.,0.,1.));
#374=DIRECTION('',(0.,1.,0.));
#375=DIRECTION('',(0.,0.,1.));
#376=DIRECTION('',(0.,1.,0.));
#377=DIRECTION('',(0.,0.,1.));
#378=DIRECTION('',(0.,1.,0.));
#379=DIRECTION('',(0.,0.,1.));
#380=DIRECTION('',(0.,-1.,0.));
#381=DIRECTION('',(0.,0.,-1.));
#382=DIRECTION('',(0.,1.,0.));
#383=DIRECTION('',(0.,0.,1.));
#384=DIRECTION('',(0.,1.,0.));
#385=DIRECTION('',(0.,0.,1.));
#386=DIRECTION('',(0.,1.,0.));
#387=DIRECTION('',(0.,0.,1.));
#388=DIRECTION('',(0.,1.,0.));
#389=DIRECTION('',(0.,1.,0.));
#390=DIRECTION('',(0.,1.,0.));
#391=DIRECTION('',(0.,0.,1.));
#392=DIRECTION('',(0.,1.,0.));
#393=DIRECTION('',(0.,1.,0.));
#394=DIRECTION('',(0.,0.,1.));
#395=DIRECTION('',(0.,1.,0.));
#396=DIRECTION('',(0.,-1.,0.));
#397=DIRECTION('',(0.,0.,-1.));
#398=DIRECTION('',(-1.,0.,0.));
#399=DIRECTION('',(0.,-1.,0.));
#400=DIRECTION('',(0.,0.,1.));
#401=DIRECTION('',(0.,1.,0.));
#402=DIRECTION('',(0.,0.,1.));
#403=DIRECTION('',(0.,-1.,0.));
#404=DIRECTION('',(0.,-1.,0.));
#405=DIRECTION('',(0.,1.,0.));
#406=DIRECTION('',(0.,0.,1.));
#407=DIRECTION('',(0.,-1.,0.));
#408=DIRECTION('',(0.,-1.,0.));
#409=DIRECTION('',(0.,0.,-1.));
#410=DIRECTION('',(0.,-1.,0.));
#411=DIRECTION('',(0.,1.,0.));
#412=DIRECTION('',(0.,0.,-1.));
#413=DIRECTION('',(0.,1.,0.));
#414=DIRECTION('',(0.,0.,1.));
#415=DIRECTION('',(-1.,0.,0.));
#416=DIRECTION('',(-1.,0.,0.));
#417=DIRECTION('',(0.,1.,0.));
#418=DIRECTION('',(0.,0.,1.));
#419=DIRECTION('',(-1.,0.,0.));
#420=DIRECTION('',(-1.,0.,0.));
#421=DIRECTION('',(0.,7.37257477290143E-16,-1.));
#422=DIRECTION('',(0.,1.,7.37257477290143E-16));
#423=DIRECTION('',(0.,4.98732999343332E-16,1.));
#424=DIRECTION('',(0.,-1.,4.98732999343332E-16));
#425=DIRECTION('',(0.,0.,1.));
#426=DIRECTION('',(1.,0.,0.));
#427=DIRECTION('',(0.,1.,0.));
#428=DIRECTION('',(0.,0.,1.));
#429=DIRECTION('',(0.,1.,0.));
#430=DIRECTION('',(0.,0.,1.));
#431=DIRECTION('',(0.,1.,0.));
#432=DIRECTION('',(0.,0.,1.));
#433=DIRECTION('',(0.,1.,0.));
#434=DIRECTION('',(0.,0.,1.));
#435=DIRECTION('',(0.,-1.,0.));
#436=DIRECTION('',(0.,0.,-1.));
#437=DIRECTION('',(0.,1.,0.));
#438=DIRECTION('',(0.,0.,1.));
#439=DIRECTION('',(0.,1.,0.));
#440=DIRECTION('',(0.,0.,1.));
#441=DIRECTION('',(0.,-1.,0.));
#442=DIRECTION('',(0.,0.,-1.));
#443=DIRECTION('',(0.,-1.,0.));
#444=DIRECTION('',(0.,0.,-1.));
#445=DIRECTION('',(0.,-1.,0.));
#446=DIRECTION('',(0.,0.,-1.));
#447=DIRECTION('',(0.,-1.,0.));
#448=DIRECTION('',(0.,0.,-1.));
#449=DIRECTION('',(1.11022302462516E-16,-1.11022302462516E-16,1.));
#450=DIRECTION('',(1.,5.55111512312579E-17,-1.11022302462516E-16));
#451=CARTESIAN_POINT('',(0.,0.,0.));
#452=CARTESIAN_POINT('',(1.00000000000004,0.,0.));
#453=CARTESIAN_POINT('',(1.,0.,-0.15));
#454=CARTESIAN_POINT('',(0.988685996664303,0.,-0.15));
#455=CARTESIAN_POINT('',(-0.988685996664303,0.,-0.15));
#456=CARTESIAN_POINT('',(0.,0.,0.));
#457=CARTESIAN_POINT('',(0.,2.14055940236791,0.));
#458=CARTESIAN_POINT('',(0.,2.14055940236791,0.));
#459=CARTESIAN_POINT('',(-0.632455532033676,2.14055940236791,-0.149999999999998));
#460=CARTESIAN_POINT('',(0.632455532033676,2.14055940236791,-0.149999999999998));
#461=CARTESIAN_POINT('',(-0.632455532033676,2.14055940236791,-0.149999999999998));
#462=CARTESIAN_POINT('',(-0.530601292473906,2.08101108551016,-0.149999999999999));
#463=CARTESIAN_POINT('',(-0.330704561848541,1.96980596439275,-0.149999999999999));
#464=CARTESIAN_POINT('',(0.00297943913422991,1.77482665453315,-0.149999999999999));
#465=CARTESIAN_POINT('',(0.332539788362655,1.97172510952901,-0.149999999999999));
#466=CARTESIAN_POINT('',(0.53133243148115,2.08143854044438,-0.149999999999999));
#467=CARTESIAN_POINT('',(0.632455532033676,2.14055940236791,-0.149999999999998));
#468=CARTESIAN_POINT('',(0.,6.75,0.));
#469=CARTESIAN_POINT('',(0.,6.75,0.));
#470=CARTESIAN_POINT('',(0.,6.75,0.65));
#471=CARTESIAN_POINT('',(0.,6.75,0.));
#472=CARTESIAN_POINT('',(0.,6.75,2.4));
#473=CARTESIAN_POINT('',(0.,0.,0.));
#474=CARTESIAN_POINT('',(0.,6.,0.));
#475=CARTESIAN_POINT('',(0.,6.,2.4));
#476=CARTESIAN_POINT('',(2.4,6.,0.));
#477=CARTESIAN_POINT('',(0.,6.,0.));
#478=CARTESIAN_POINT('',(0.,6.,1.));
#479=CARTESIAN_POINT('',(0.,0.,0.));
#480=CARTESIAN_POINT('',(0.,2.5,0.));
#481=CARTESIAN_POINT('',(0.988685996664281,2.5,-0.149999999999998));
#482=CARTESIAN_POINT('',(0.988685996664281,2.5,0.149999999999995));
#483=CARTESIAN_POINT('',(0.988685996664281,1.10588621593522E-16,-0.15));
#484=CARTESIAN_POINT('',(-0.988685996664281,1.10588621593522E-16,-0.15));
#485=CARTESIAN_POINT('',(-0.988685996664281,2.5,-0.149999999999998));
#486=CARTESIAN_POINT('',(0.,2.5,0.));
#487=CARTESIAN_POINT('',(-0.988685996664282,2.5,0.149999999999995));
#488=CARTESIAN_POINT('',(-0.988685996664281,7.48099499014981E-17,0.149999999999997));
#489=CARTESIAN_POINT('',(-0.988685996664303,-1.83697019872101E-17,0.149999999999998));
#490=CARTESIAN_POINT('',(0.,0.,0.));
#491=CARTESIAN_POINT('',(0.988685996664303,0.,0.149999999999997));
#492=CARTESIAN_POINT('',(0.988685996664281,7.48099499014981E-17,0.149999999999997));
#493=CARTESIAN_POINT('',(1.00000000000004,0.,0.));
#494=CARTESIAN_POINT('',(1.,-1.83697019872101E-17,0.149999999999998));
#495=CARTESIAN_POINT('',(0.,6.75,0.));
#496=CARTESIAN_POINT('',(0.,2.5,0.));
#497=CARTESIAN_POINT('',(-0.632455532033677,2.5,0.149999999999995));
#498=CARTESIAN_POINT('',(-0.632455532033677,2.5,-0.149999999999998));
#499=CARTESIAN_POINT('',(-0.632455532033677,6.75,-0.149999999999995));
#500=CARTESIAN_POINT('',(0.632455532033677,6.75,-0.149999999999995));
#501=CARTESIAN_POINT('',(0.632455532033677,2.5,-0.149999999999998));
#502=CARTESIAN_POINT('',(0.,2.5,0.));
#503=CARTESIAN_POINT('',(0.632455532033678,2.5,0.149999999999995));
#504=CARTESIAN_POINT('',(0.632455532033678,6.75,0.149999999999993));
#505=CARTESIAN_POINT('',(0.632455532033677,2.14055940236791,0.149999999999996));
#506=CARTESIAN_POINT('',(0.,2.14055940236791,0.));
#507=CARTESIAN_POINT('',(-0.632455532033677,2.14055940236791,0.149999999999996));
#508=CARTESIAN_POINT('',(-0.632455532033678,6.75,0.149999999999993));
#509=CARTESIAN_POINT('',(0.,2.14055940236791,0.));
#510=CARTESIAN_POINT('',(-0.632455532033677,2.14055940236791,0.149999999999996));
#511=CARTESIAN_POINT('',(-0.530601292473907,2.08101108551016,0.149999999999996));
#512=CARTESIAN_POINT('',(-0.330704561848543,1.96980596439275,0.149999999999996));
#513=CARTESIAN_POINT('',(0.00297943913423018,1.77482665453315,0.149999999999996));
#514=CARTESIAN_POINT('',(0.332539788362654,1.97172510952901,0.149999999999996));
#515=CARTESIAN_POINT('',(0.53133243148115,2.08143854044438,0.149999999999996));
#516=CARTESIAN_POINT('',(0.632455532033676,2.14055940236791,0.149999999999996));
#517=CARTESIAN_POINT('',(1.,2.5,0.149999999999995));
#518=CARTESIAN_POINT('',(1.,2.5,-0.149999999999998));
#519=CARTESIAN_POINT('',(1.,2.5,0.149999999999995));
#520=CARTESIAN_POINT('',(1.,2.5,0.149999999999995));
#521=CARTESIAN_POINT('',(1.,2.5,0.149999999999995));
#522=CARTESIAN_POINT('',(1.,2.5,-0.149999999999998));
#523=CARTESIAN_POINT('',(1.,2.5,-0.149999999999998));
#524=CARTESIAN_POINT('',(1.,-3.67394039744202E-17,0.149999999999997));
#525=CARTESIAN_POINT('',(0.,0.,0.));
#526=CARTESIAN_POINT('',(0.,7.,0.));
#527=CARTESIAN_POINT('',(0.,7.,0.));
#528=CARTESIAN_POINT('',(0.,7.,2.4));
#529=CARTESIAN_POINT('',(0.,0.,0.));
#530=CARTESIAN_POINT('',(0.,6.25,0.));
#531=CARTESIAN_POINT('',(0.,6.25,2.4));
#532=CARTESIAN_POINT('',(2.4,6.25,0.));
#533=CARTESIAN_POINT('',(0.,6.25,0.));
#534=CARTESIAN_POINT('',(0.,6.25,0.625));
#535=CARTESIAN_POINT('',(0.,0.,0.));
#536=CARTESIAN_POINT('',(0.,0.5,0.));
#537=CARTESIAN_POINT('',(0.,0.5,-0.625));
#538=CARTESIAN_POINT('',(0.625000000000001,0.,0.));
#539=CARTESIAN_POINT('',(0.,0.,0.));
#540=CARTESIAN_POINT('',(0.,0.,-0.125));
#541=CARTESIAN_POINT('',(0.,0.5,0.));
#542=CARTESIAN_POINT('',(-7.91033905045424E-16,2.,-5.27355936696949E-16));
#543=MECHANICAL_DESIGN_GEOMETRIC_PRESENTATION_REPRESENTATION('',(#297,#298),
#544);
#544=(
GEOMETRIC_REPRESENTATION_CONTEXT(3)
GLOBAL_UNCERTAINTY_ASSIGNED_CONTEXT((#547))
GLOBAL_UNIT_ASSIGNED_CONTEXT((#552,#551,#550))
REPRESENTATION_CONTEXT('700970600_3D','TOP_LEVEL_ASSEMBLY_PART')
);
#545=(
GEOMETRIC_REPRESENTATION_CONTEXT(3)
GLOBAL_UNCERTAINTY_ASSIGNED_CONTEXT((#548))
GLOBAL_UNIT_ASSIGNED_CONTEXT((#552,#551,#550))
REPRESENTATION_CONTEXT('700970600_holder','COMPONENT_PART')
);
#546=(
GEOMETRIC_REPRESENTATION_CONTEXT(3)
GLOBAL_UNCERTAINTY_ASSIGNED_CONTEXT((#549))
GLOBAL_UNIT_ASSIGNED_CONTEXT((#552,#551,#550))
REPRESENTATION_CONTEXT('700970600_pin','COMPONENT_PART')
);
#547=UNCERTAINTY_MEASURE_WITH_UNIT(LENGTH_MEASURE(0.005),#552,
'DISTANCE_ACCURACY_VALUE','Maximum Tolerance applied to model');
#548=UNCERTAINTY_MEASURE_WITH_UNIT(LENGTH_MEASURE(0.005),#552,
'DISTANCE_ACCURACY_VALUE','Maximum Tolerance applied to model');
#549=UNCERTAINTY_MEASURE_WITH_UNIT(LENGTH_MEASURE(0.005),#552,
'DISTANCE_ACCURACY_VALUE','Maximum Tolerance applied to model');
#550=(
NAMED_UNIT(*)
SI_UNIT($,.STERADIAN.)
SOLID_ANGLE_UNIT()
);
#551=(
NAMED_UNIT(*)
PLANE_ANGLE_UNIT()
SI_UNIT($,.RADIAN.)
);
#552=(
LENGTH_UNIT()
NAMED_UNIT(*)
SI_UNIT(.MILLI.,.METRE.)
);
#553=PRODUCT_DEFINITION_SHAPE('','',#558);
#554=PRODUCT_DEFINITION_SHAPE('','',#559);
#555=PRODUCT_DEFINITION_SHAPE(' ','NAUO PRDDFN',#21);
#556=PRODUCT_DEFINITION_SHAPE('','',#560);
#557=PRODUCT_DEFINITION_SHAPE(' ','NAUO PRDDFN',#22);
#558=PRODUCT_DEFINITION('','',#564,#561);
#559=PRODUCT_DEFINITION('','',#565,#562);
#560=PRODUCT_DEFINITION('','',#566,#563);
#561=PRODUCT_DEFINITION_CONTEXT('',#580,'design');
#562=PRODUCT_DEFINITION_CONTEXT('',#580,'design');
#563=PRODUCT_DEFINITION_CONTEXT('',#580,'design');
#564=PRODUCT_DEFINITION_FORMATION_WITH_SPECIFIED_SOURCE('','',#570,
 .NOT_KNOWN.);
#565=PRODUCT_DEFINITION_FORMATION_WITH_SPECIFIED_SOURCE('','',#571,
 .NOT_KNOWN.);
#566=PRODUCT_DEFINITION_FORMATION_WITH_SPECIFIED_SOURCE('','',#572,
 .NOT_KNOWN.);
#567=PRODUCT_RELATED_PRODUCT_CATEGORY('','',(#570));
#568=PRODUCT_RELATED_PRODUCT_CATEGORY('','',(#571));
#569=PRODUCT_RELATED_PRODUCT_CATEGORY('','',(#572));
#570=PRODUCT('700970600_3D','700970600_3D','700970600_3D',(#576));
#571=PRODUCT('700970600_holder','700970600_holder','700970600_holder',(#577));
#572=PRODUCT('700970600_pin','700970600_pin','700970600_pin',(#578));
#573=PRODUCT_CATEGORY('','');
#574=PRODUCT_CATEGORY('','');
#575=PRODUCT_CATEGORY('','');
#576=PRODUCT_CONTEXT('',#580,'mechanical');
#577=PRODUCT_CONTEXT('',#580,'mechanical');
#578=PRODUCT_CONTEXT('',#580,'mechanical');
#579=APPLICATION_PROTOCOL_DEFINITION('international standard',
'automotive_design',2010,#580);
#580=APPLICATION_CONTEXT(
'core data for automotive mechanical design processes');
ENDSEC;
END-ISO-10303-21;
