ISO-10303-21;
HEADER;
/* Generated by software containing ST-Developer
 * from STEP Tools, Inc. (www.steptools.com) 
 */
/* OPTION: strings as raw bytes, not using required /X/ escapes */

FILE_DESCRIPTION(
/* description */ ('Unknown'),
/* implementation_level */ '2;1');

FILE_NAME(
/* name */ '520007000',
/* time_stamp */ '2019-01-11T10:04:37+01:00',
/* author */ ('Unknown'),
/* organization */ ('Unknown'),
/* preprocessor_version */ 'ST-DEVELOPER v16.7',
/* originating_system */ 'DEX',
/* authorisation */ $);

FILE_SCHEMA (('AUTOMOTIVE_DESIGN {1 0 10303 214 3 1 1}'));
ENDSEC;

DATA;
#10=PROPERTY_DEFINITION_REPRESENTATION(#14,#12);
#11=PROPERTY_DEFINITION_REPRESENTATION(#15,#13);
#12=REPRESENTATION('',(#16),#339);
#13=REPRESENTATION('',(#17),#339);
#14=PROPERTY_DEFINITION('pmi validation property','',#344);
#15=PROPERTY_DEFINITION('pmi validation property','',#344);
#16=VALUE_REPRESENTATION_ITEM('number of annotations',COUNT_MEASURE(0.));
#17=VALUE_REPRESENTATION_ITEM('number of views',COUNT_MEASURE(0.));
#18=SHAPE_REPRESENTATION_RELATIONSHIP('','',#187,#19);
#19=ADVANCED_BREP_SHAPE_REPRESENTATION('',(#185),#339);
#20=PLANE('',#207);
#21=PLANE('',#212);
#22=LINE('',#295,#26);
#23=LINE('',#301,#27);
#24=LINE('',#305,#28);
#25=LINE('',#313,#29);
#26=VECTOR('',#229,1000.);
#27=VECTOR('',#236,1000.);
#28=VECTOR('',#241,1000.);
#29=VECTOR('',#250,1000.);
#30=CYLINDRICAL_SURFACE('',#192,7.5);
#31=CYLINDRICAL_SURFACE('',#195,9.65);
#32=CYLINDRICAL_SURFACE('',#198,11.55);
#33=CYLINDRICAL_SURFACE('',#201,9.4);
#34=CYLINDRICAL_SURFACE('',#204,7.5);
#35=CYLINDRICAL_SURFACE('',#210,9.64999999999999);
#36=CIRCLE('',#190,2.42693221990232);
#37=CIRCLE('',#191,2.42693221990232);
#38=CIRCLE('',#193,7.5);
#39=CIRCLE('',#194,7.5);
#40=CIRCLE('',#196,9.65);
#41=CIRCLE('',#197,9.65);
#42=CIRCLE('',#199,11.55);
#43=CIRCLE('',#200,11.55);
#44=CIRCLE('',#202,9.4);
#45=CIRCLE('',#203,9.4);
#46=CIRCLE('',#205,7.5);
#47=CIRCLE('',#206,7.5);
#48=CIRCLE('',#208,9.64999999999999);
#49=CIRCLE('',#209,2.42693221990232);
#50=CIRCLE('',#211,9.64999999999999);
#51=CIRCLE('',#213,2.42693221990232);
#52=ORIENTED_EDGE('',*,*,#100,.F.);
#53=ORIENTED_EDGE('',*,*,#101,.F.);
#54=ORIENTED_EDGE('',*,*,#102,.F.);
#55=ORIENTED_EDGE('',*,*,#103,.F.);
#56=ORIENTED_EDGE('',*,*,#104,.T.);
#57=ORIENTED_EDGE('',*,*,#102,.T.);
#58=ORIENTED_EDGE('',*,*,#105,.F.);
#59=ORIENTED_EDGE('',*,*,#106,.T.);
#60=ORIENTED_EDGE('',*,*,#107,.T.);
#61=ORIENTED_EDGE('',*,*,#100,.T.);
#62=ORIENTED_EDGE('',*,*,#108,.F.);
#63=ORIENTED_EDGE('',*,*,#109,.T.);
#64=ORIENTED_EDGE('',*,*,#106,.F.);
#65=ORIENTED_EDGE('',*,*,#110,.F.);
#66=ORIENTED_EDGE('',*,*,#111,.T.);
#67=ORIENTED_EDGE('',*,*,#112,.T.);
#68=ORIENTED_EDGE('',*,*,#113,.T.);
#69=ORIENTED_EDGE('',*,*,#109,.F.);
#70=ORIENTED_EDGE('',*,*,#114,.F.);
#71=ORIENTED_EDGE('',*,*,#115,.T.);
#72=ORIENTED_EDGE('',*,*,#116,.F.);
#73=ORIENTED_EDGE('',*,*,#117,.T.);
#74=ORIENTED_EDGE('',*,*,#118,.T.);
#75=ORIENTED_EDGE('',*,*,#111,.F.);
#76=ORIENTED_EDGE('',*,*,#119,.F.);
#77=ORIENTED_EDGE('',*,*,#120,.T.);
#78=ORIENTED_EDGE('',*,*,#116,.T.);
#79=ORIENTED_EDGE('',*,*,#110,.T.);
#80=ORIENTED_EDGE('',*,*,#105,.T.);
#81=ORIENTED_EDGE('',*,*,#101,.T.);
#82=ORIENTED_EDGE('',*,*,#107,.F.);
#83=ORIENTED_EDGE('',*,*,#113,.F.);
#84=ORIENTED_EDGE('',*,*,#121,.F.);
#85=ORIENTED_EDGE('',*,*,#122,.T.);
#86=ORIENTED_EDGE('',*,*,#119,.T.);
#87=ORIENTED_EDGE('',*,*,#115,.F.);
#88=ORIENTED_EDGE('',*,*,#118,.F.);
#89=ORIENTED_EDGE('',*,*,#123,.T.);
#90=ORIENTED_EDGE('',*,*,#121,.T.);
#91=ORIENTED_EDGE('',*,*,#114,.T.);
#92=ORIENTED_EDGE('',*,*,#108,.T.);
#93=ORIENTED_EDGE('',*,*,#103,.T.);
#94=ORIENTED_EDGE('',*,*,#104,.F.);
#95=ORIENTED_EDGE('',*,*,#112,.F.);
#96=ORIENTED_EDGE('',*,*,#123,.F.);
#97=ORIENTED_EDGE('',*,*,#117,.F.);
#98=ORIENTED_EDGE('',*,*,#120,.F.);
#99=ORIENTED_EDGE('',*,*,#122,.F.);
#100=EDGE_CURVE('',#124,#125,#140,.T.);
#101=EDGE_CURVE('',#126,#124,#36,.F.);
#102=EDGE_CURVE('',#127,#126,#141,.T.);
#103=EDGE_CURVE('',#125,#127,#37,.F.);
#104=EDGE_CURVE('',#128,#127,#38,.T.);
#105=EDGE_CURVE('',#129,#126,#39,.T.);
#106=EDGE_CURVE('',#129,#128,#22,.F.);
#107=EDGE_CURVE('',#130,#124,#40,.T.);
#108=EDGE_CURVE('',#131,#125,#41,.T.);
#109=EDGE_CURVE('',#131,#130,#23,.F.);
#110=EDGE_CURVE('',#132,#129,#42,.T.);
#111=EDGE_CURVE('',#132,#133,#24,.F.);
#112=EDGE_CURVE('',#133,#128,#43,.T.);
#113=EDGE_CURVE('',#134,#130,#44,.T.);
#114=EDGE_CURVE('',#135,#131,#45,.T.);
#115=EDGE_CURVE('',#135,#134,#25,.F.);
#116=EDGE_CURVE('',#136,#132,#46,.T.);
#117=EDGE_CURVE('',#136,#137,#142,.T.);
#118=EDGE_CURVE('',#137,#133,#47,.T.);
#119=EDGE_CURVE('',#138,#134,#48,.T.);
#120=EDGE_CURVE('',#138,#136,#49,.F.);
#121=EDGE_CURVE('',#139,#135,#50,.T.);
#122=EDGE_CURVE('',#139,#138,#143,.T.);
#123=EDGE_CURVE('',#137,#139,#51,.F.);
#124=VERTEX_POINT('',#280);
#125=VERTEX_POINT('',#281);
#126=VERTEX_POINT('',#283);
#127=VERTEX_POINT('',#288);
#128=VERTEX_POINT('',#292);
#129=VERTEX_POINT('',#294);
#130=VERTEX_POINT('',#298);
#131=VERTEX_POINT('',#300);
#132=VERTEX_POINT('',#304);
#133=VERTEX_POINT('',#306);
#134=VERTEX_POINT('',#310);
#135=VERTEX_POINT('',#312);
#136=VERTEX_POINT('',#316);
#137=VERTEX_POINT('',#321);
#138=VERTEX_POINT('',#325);
#139=VERTEX_POINT('',#329);
#140=B_SPLINE_CURVE_WITH_KNOTS('',3,(#275,#276,#277,#278,#279),
 .UNSPECIFIED.,.F.,.F.,(4,1,4),(4.32769887567653E-7,0.00125969914304542,
0.00251896551620328),.UNSPECIFIED.);
#141=B_SPLINE_CURVE_WITH_KNOTS('',3,(#284,#285,#286,#287),.UNSPECIFIED.,
 .F.,.F.,(4,4),(3.29941925334564E-7,0.00230995503242128),.UNSPECIFIED.);
#142=B_SPLINE_CURVE_WITH_KNOTS('',3,(#317,#318,#319,#320),.UNSPECIFIED.,
 .F.,.F.,(4,4),(3.29941925325928E-7,0.00230995503242127),.UNSPECIFIED.);
#143=B_SPLINE_CURVE_WITH_KNOTS('',3,(#330,#331,#332,#333,#334),
 .UNSPECIFIED.,.F.,.F.,(4,1,4),(4.32769887546374E-7,0.0012596991430454,
0.00251896551620325),.UNSPECIFIED.);
#144=EDGE_LOOP('',(#52,#53,#54,#55));
#145=EDGE_LOOP('',(#56,#57,#58,#59));
#146=EDGE_LOOP('',(#60,#61,#62,#63));
#147=EDGE_LOOP('',(#64,#65,#66,#67));
#148=EDGE_LOOP('',(#68,#69,#70,#71));
#149=EDGE_LOOP('',(#72,#73,#74,#75));
#150=EDGE_LOOP('',(#76,#77,#78,#79,#80,#81,#82,#83));
#151=EDGE_LOOP('',(#84,#85,#86,#87));
#152=EDGE_LOOP('',(#88,#89,#90,#91,#92,#93,#94,#95));
#153=EDGE_LOOP('',(#96,#97,#98,#99));
#154=FACE_BOUND('',#144,.T.);
#155=FACE_BOUND('',#145,.T.);
#156=FACE_BOUND('',#146,.T.);
#157=FACE_BOUND('',#147,.T.);
#158=FACE_BOUND('',#148,.T.);
#159=FACE_BOUND('',#149,.T.);
#160=FACE_BOUND('',#150,.T.);
#161=FACE_BOUND('',#151,.T.);
#162=FACE_BOUND('',#152,.T.);
#163=FACE_BOUND('',#153,.T.);
#164=SPHERICAL_SURFACE('',#189,2.675);
#165=SPHERICAL_SURFACE('',#214,2.675);
#166=ADVANCED_FACE('',(#154),#164,.T.);
#167=ADVANCED_FACE('',(#155),#30,.F.);
#168=ADVANCED_FACE('',(#156),#31,.T.);
#169=ADVANCED_FACE('',(#157),#32,.T.);
#170=ADVANCED_FACE('',(#158),#33,.F.);
#171=ADVANCED_FACE('',(#159),#34,.F.);
#172=ADVANCED_FACE('',(#160),#20,.T.);
#173=ADVANCED_FACE('',(#161),#35,.T.);
#174=ADVANCED_FACE('',(#162),#21,.T.);
#175=ADVANCED_FACE('',(#163),#165,.T.);
#176=CLOSED_SHELL('',(#166,#167,#168,#169,#170,#171,#172,#173,#174,#175));
#177=STYLED_ITEM('',(#178),#185);
#178=PRESENTATION_STYLE_ASSIGNMENT((#179));
#179=SURFACE_STYLE_USAGE(.BOTH.,#180);
#180=SURFACE_SIDE_STYLE('',(#181));
#181=SURFACE_STYLE_FILL_AREA(#182);
#182=FILL_AREA_STYLE('',(#183));
#183=FILL_AREA_STYLE_COLOUR('',#184);
#184=COLOUR_RGB('',0.645180702209473,0.678915679454803,0.699999988079071);
#185=MANIFOLD_SOLID_BREP('',#176);
#186=SHAPE_DEFINITION_REPRESENTATION(#344,#187);
#187=SHAPE_REPRESENTATION('520007000',(#188),#339);
#188=AXIS2_PLACEMENT_3D('',#273,#215,#216);
#189=AXIS2_PLACEMENT_3D('',#274,#217,#218);
#190=AXIS2_PLACEMENT_3D('',#282,#219,#220);
#191=AXIS2_PLACEMENT_3D('',#289,#221,#222);
#192=AXIS2_PLACEMENT_3D('',#290,#223,#224);
#193=AXIS2_PLACEMENT_3D('',#291,#225,#226);
#194=AXIS2_PLACEMENT_3D('',#293,#227,#228);
#195=AXIS2_PLACEMENT_3D('',#296,#230,#231);
#196=AXIS2_PLACEMENT_3D('',#297,#232,#233);
#197=AXIS2_PLACEMENT_3D('',#299,#234,#235);
#198=AXIS2_PLACEMENT_3D('',#302,#237,#238);
#199=AXIS2_PLACEMENT_3D('',#303,#239,#240);
#200=AXIS2_PLACEMENT_3D('',#307,#242,#243);
#201=AXIS2_PLACEMENT_3D('',#308,#244,#245);
#202=AXIS2_PLACEMENT_3D('',#309,#246,#247);
#203=AXIS2_PLACEMENT_3D('',#311,#248,#249);
#204=AXIS2_PLACEMENT_3D('',#314,#251,#252);
#205=AXIS2_PLACEMENT_3D('',#315,#253,#254);
#206=AXIS2_PLACEMENT_3D('',#322,#255,#256);
#207=AXIS2_PLACEMENT_3D('',#323,#257,#258);
#208=AXIS2_PLACEMENT_3D('',#324,#259,#260);
#209=AXIS2_PLACEMENT_3D('',#326,#261,#262);
#210=AXIS2_PLACEMENT_3D('',#327,#263,#264);
#211=AXIS2_PLACEMENT_3D('',#328,#265,#266);
#212=AXIS2_PLACEMENT_3D('',#335,#267,#268);
#213=AXIS2_PLACEMENT_3D('',#336,#269,#270);
#214=AXIS2_PLACEMENT_3D('',#337,#271,#272);
#215=DIRECTION('',(0.,0.,1.));
#216=DIRECTION('',(1.,0.,0.));
#217=DIRECTION('',(0.,1.,0.));
#218=DIRECTION('',(-1.,0.,0.));
#219=DIRECTION('',(0.,-1.,0.));
#220=DIRECTION('',(0.,0.,-1.));
#221=DIRECTION('',(0.,1.,0.));
#222=DIRECTION('',(0.,0.,1.));
#223=DIRECTION('',(0.,1.,0.));
#224=DIRECTION('',(0.,0.,1.));
#225=DIRECTION('',(0.,1.,0.));
#226=DIRECTION('',(-0.648550972537186,0.,-0.761171226480002));
#227=DIRECTION('',(0.,1.,0.));
#228=DIRECTION('',(-0.648550972537186,0.,-0.761171226480002));
#229=DIRECTION('',(4.66067560147091E-17,-1.,-3.9710982087336E-17));
#230=DIRECTION('',(0.,1.,0.));
#231=DIRECTION('',(0.,0.,1.));
#232=DIRECTION('',(0.,1.,0.));
#233=DIRECTION('',(-0.648550972537186,0.,-0.761171226480002));
#234=DIRECTION('',(0.,1.,0.));
#235=DIRECTION('',(-0.648550972537186,0.,-0.761171226480002));
#236=DIRECTION('',(-4.66067560147091E-17,1.,3.9710982087336E-17));
#237=DIRECTION('',(0.,-1.,0.));
#238=DIRECTION('',(0.,0.,-1.));
#239=DIRECTION('',(0.,-1.,0.));
#240=DIRECTION('',(-0.648550972537186,0.,0.761171226480002));
#241=DIRECTION('',(4.66067560147091E-17,-1.,3.9710982087336E-17));
#242=DIRECTION('',(0.,-1.,0.));
#243=DIRECTION('',(-0.648550972537186,0.,0.761171226480002));
#244=DIRECTION('',(0.,-1.,0.));
#245=DIRECTION('',(0.,0.,-1.));
#246=DIRECTION('',(0.,-1.,0.));
#247=DIRECTION('',(-0.648550972537186,0.,0.761171226480002));
#248=DIRECTION('',(0.,-1.,0.));
#249=DIRECTION('',(-0.648550972537186,0.,0.761171226480002));
#250=DIRECTION('',(-4.66067560147091E-17,1.,-3.9710982087336E-17));
#251=DIRECTION('',(0.,1.,0.));
#252=DIRECTION('',(0.,0.,1.));
#253=DIRECTION('',(0.,1.,0.));
#254=DIRECTION('',(0.618884678757915,0.,0.785481861279248));
#255=DIRECTION('',(0.,1.,0.));
#256=DIRECTION('',(0.618884678757915,0.,0.785481861279248));
#257=DIRECTION('',(0.,-1.,0.));
#258=DIRECTION('',(0.,0.,-1.));
#259=DIRECTION('',(0.,1.,0.));
#260=DIRECTION('',(0.618884678757915,0.,0.785481861279248));
#261=DIRECTION('',(0.,-1.,0.));
#262=DIRECTION('',(0.,0.,-1.));
#263=DIRECTION('',(0.,1.,0.));
#264=DIRECTION('',(0.,0.,1.));
#265=DIRECTION('',(0.,1.,0.));
#266=DIRECTION('',(0.618884678757915,0.,0.785481861279248));
#267=DIRECTION('',(0.,1.,0.));
#268=DIRECTION('',(0.,0.,1.));
#269=DIRECTION('',(0.,1.,0.));
#270=DIRECTION('',(0.,0.,1.));
#271=DIRECTION('',(0.,-1.,0.));
#272=DIRECTION('',(-1.,0.,0.));
#273=CARTESIAN_POINT('',(0.,0.,0.));
#274=CARTESIAN_POINT('',(8.15,0.,32.325));
#275=CARTESIAN_POINT('',(5.89311465949585,-1.125,33.2174508724952));
#276=CARTESIAN_POINT('',(5.66537037624392,-0.831004302336105,33.012120159029));
#277=CARTESIAN_POINT('',(5.39881990451744,-0.00100149928269547,32.7372205326124));
#278=CARTESIAN_POINT('',(5.6653125278278,0.830929625662721,33.0120680037942));
#279=CARTESIAN_POINT('',(5.89311465949585,1.125,33.2174508724952));
#280=CARTESIAN_POINT('',(5.89311465949585,-1.125,33.2174508724952));
#281=CARTESIAN_POINT('',(5.89311465949585,1.125,33.2174508724952));
#282=CARTESIAN_POINT('',(8.15,-1.125,32.325));
#283=CARTESIAN_POINT('',(6.41442033343069,-1.125,30.6286028704955));
#284=CARTESIAN_POINT('',(6.4144203334323,1.12500000000564,30.6286028704976));
#285=CARTESIAN_POINT('',(6.21232138899089,0.417795977534356,30.366373172663));
#286=CARTESIAN_POINT('',(6.21231064150941,-0.41775836891105,30.3663592274696));
#287=CARTESIAN_POINT('',(6.41442033343069,-1.125,30.6286028704955));
#288=CARTESIAN_POINT('',(6.4144203334323,1.12500000000564,30.6286028704976));
#289=CARTESIAN_POINT('',(8.15,1.125,32.325));
#290=CARTESIAN_POINT('',(12.3548960268334,0.,26.050311864444));
#291=CARTESIAN_POINT('',(12.3548960268334,1.125,26.050311864444));
#292=CARTESIAN_POINT('',(7.49076373280451,1.125,20.341527665844));
#293=CARTESIAN_POINT('',(12.3548960268334,-1.125,26.050311864444));
#294=CARTESIAN_POINT('',(7.49076373280451,-1.125,20.341527665844));
#295=CARTESIAN_POINT('',(7.4907637328045,1.125,20.341527665844));
#296=CARTESIAN_POINT('',(12.3548960268334,0.,26.050311864444));
#297=CARTESIAN_POINT('',(12.3548960268334,-1.125,26.050311864444));
#298=CARTESIAN_POINT('',(6.09637914184955,-1.125,18.705009528912));
#299=CARTESIAN_POINT('',(12.3548960268334,1.125,26.050311864444));
#300=CARTESIAN_POINT('',(6.09637914184955,1.125,18.705009528912));
#301=CARTESIAN_POINT('',(6.09637914184955,-1.125,18.705009528912));
#302=CARTESIAN_POINT('',(0.,0.,11.55));
#303=CARTESIAN_POINT('',(0.,-1.125,11.55));
#304=CARTESIAN_POINT('',(-7.4907637328045,-1.125,20.341527665844));
#305=CARTESIAN_POINT('',(-7.4907637328045,1.125,20.341527665844));
#306=CARTESIAN_POINT('',(-7.4907637328045,1.125,20.341527665844));
#307=CARTESIAN_POINT('',(0.,1.125,11.55));
#308=CARTESIAN_POINT('',(0.,0.,11.55));
#309=CARTESIAN_POINT('',(0.,-1.125,11.55));
#310=CARTESIAN_POINT('',(-6.09637914184955,-1.125,18.705009528912));
#311=CARTESIAN_POINT('',(0.,1.125,11.55));
#312=CARTESIAN_POINT('',(-6.09637914184955,1.125,18.705009528912));
#313=CARTESIAN_POINT('',(-6.09637914184955,-1.125,18.705009528912));
#314=CARTESIAN_POINT('',(-12.3548960268334,0.,26.050311864444));
#315=CARTESIAN_POINT('',(-12.3548960268334,-1.125,26.050311864444));
#316=CARTESIAN_POINT('',(-6.41442033343231,-1.12500000000564,30.6286028704976));
#317=CARTESIAN_POINT('',(-6.41442033343231,-1.12500000000564,30.6286028704976));
#318=CARTESIAN_POINT('',(-6.2123213889909,-0.417795977534354,30.366373172663));
#319=CARTESIAN_POINT('',(-6.21231064150941,0.417758368911051,30.3663592274696));
#320=CARTESIAN_POINT('',(-6.4144203334307,1.125,30.6286028704955));
#321=CARTESIAN_POINT('',(-6.4144203334307,1.125,30.6286028704955));
#322=CARTESIAN_POINT('',(-12.3548960268334,1.125,26.050311864444));
#323=CARTESIAN_POINT('',(-7.71326093614904,-1.125,31.9414258240384));
#324=CARTESIAN_POINT('',(-12.3548960268334,-1.125,26.050311864444));
#325=CARTESIAN_POINT('',(-5.89311465949584,-1.125,33.2174508724952));
#326=CARTESIAN_POINT('',(-8.15,-1.125,32.325));
#327=CARTESIAN_POINT('',(-12.3548960268334,0.,26.050311864444));
#328=CARTESIAN_POINT('',(-12.3548960268334,1.125,26.050311864444));
#329=CARTESIAN_POINT('',(-5.89311465949585,1.125,33.2174508724952));
#330=CARTESIAN_POINT('',(-5.89311465949585,1.125,33.2174508724952));
#331=CARTESIAN_POINT('',(-5.66537037624392,0.831004302336107,33.012120159029));
#332=CARTESIAN_POINT('',(-5.39881990451744,0.00100149928270013,32.7372205326124));
#333=CARTESIAN_POINT('',(-5.6653125278278,-0.830929625662723,33.0120680037942));
#334=CARTESIAN_POINT('',(-5.89311465949585,-1.125,33.2174508724952));
#335=CARTESIAN_POINT('',(-6.38265887681952,1.125,33.6302118257888));
#336=CARTESIAN_POINT('',(-8.15,1.125,32.325));
#337=CARTESIAN_POINT('',(-8.15,0.,32.325));
#338=MECHANICAL_DESIGN_GEOMETRIC_PRESENTATION_REPRESENTATION('',(#177),
#339);
#339=(
GEOMETRIC_REPRESENTATION_CONTEXT(3)
GLOBAL_UNCERTAINTY_ASSIGNED_CONTEXT((#340))
GLOBAL_UNIT_ASSIGNED_CONTEXT((#343,#342,#341))
REPRESENTATION_CONTEXT('520007000','TOP_LEVEL_ASSEMBLY_PART')
);
#340=UNCERTAINTY_MEASURE_WITH_UNIT(LENGTH_MEASURE(0.005),#343,
'DISTANCE_ACCURACY_VALUE','Maximum Tolerance applied to model');
#341=(
NAMED_UNIT(*)
SI_UNIT($,.STERADIAN.)
SOLID_ANGLE_UNIT()
);
#342=(
NAMED_UNIT(*)
PLANE_ANGLE_UNIT()
SI_UNIT($,.RADIAN.)
);
#343=(
LENGTH_UNIT()
NAMED_UNIT(*)
SI_UNIT(.MILLI.,.METRE.)
);
#344=PRODUCT_DEFINITION_SHAPE('','',#345);
#345=PRODUCT_DEFINITION('','',#347,#346);
#346=PRODUCT_DEFINITION_CONTEXT('',#353,'design');
#347=PRODUCT_DEFINITION_FORMATION_WITH_SPECIFIED_SOURCE('','',#349,
 .NOT_KNOWN.);
#348=PRODUCT_RELATED_PRODUCT_CATEGORY('','',(#349));
#349=PRODUCT('520007000','520007000','520007000',(#351));
#350=PRODUCT_CATEGORY('','');
#351=PRODUCT_CONTEXT('',#353,'mechanical');
#352=APPLICATION_PROTOCOL_DEFINITION('international standard',
'automotive_design',2010,#353);
#353=APPLICATION_CONTEXT(
'core data for automotive mechanical design processes');
ENDSEC;
END-ISO-10303-21;
