ISO-10303-21;
HEADER;
/* Generated by software containing ST-Developer
 * from STEP Tools, Inc. (www.steptools.com) 
 */
/* OPTION: strings as raw bytes, not using required /X/ escapes */

FILE_DESCRIPTION(
/* description */ ('Unknown'),
/* implementation_level */ '2;1');

FILE_NAME(
/* name */ '520004000',
/* time_stamp */ '2019-01-07T16:07:04+01:00',
/* author */ ('Unknown'),
/* organization */ ('Unknown'),
/* preprocessor_version */ 'ST-DEVELOPER v16.7',
/* originating_system */ 'DEX',
/* authorisation */ $);

FILE_SCHEMA (('AUTOMOTIVE_DESIGN {1 0 10303 214 3 1 1}'));
ENDSEC;

DATA;
#10=PROPERTY_DEFINITION_REPRESENTATION(#14,#12);
#11=PROPERTY_DEFINITION_REPRESENTATION(#15,#13);
#12=REPRESENTATION('',(#16),#339);
#13=REPRESENTATION('',(#17),#339);
#14=PROPERTY_DEFINITION('pmi validation property','',#344);
#15=PROPERTY_DEFINITION('pmi validation property','',#344);
#16=VALUE_REPRESENTATION_ITEM('number of annotations',COUNT_MEASURE(0.));
#17=VALUE_REPRESENTATION_ITEM('number of views',COUNT_MEASURE(0.));
#18=SHAPE_REPRESENTATION_RELATIONSHIP('','',#187,#19);
#19=ADVANCED_BREP_SHAPE_REPRESENTATION('',(#185),#339);
#20=PLANE('',#204);
#21=PLANE('',#210);
#22=LINE('',#295,#26);
#23=LINE('',#301,#27);
#24=LINE('',#307,#28);
#25=LINE('',#313,#29);
#26=VECTOR('',#229,1000.);
#27=VECTOR('',#236,1000.);
#28=VECTOR('',#243,1000.);
#29=VECTOR('',#250,1000.);
#30=CYLINDRICAL_SURFACE('',#192,9.5);
#31=CYLINDRICAL_SURFACE('',#195,7.5);
#32=CYLINDRICAL_SURFACE('',#198,5.75);
#33=CYLINDRICAL_SURFACE('',#201,7.75);
#34=CYLINDRICAL_SURFACE('',#208,9.5);
#35=CYLINDRICAL_SURFACE('',#213,7.5);
#36=CIRCLE('',#190,2.24165117714599);
#37=CIRCLE('',#191,2.24165117714599);
#38=CIRCLE('',#193,9.5);
#39=CIRCLE('',#194,9.5);
#40=CIRCLE('',#196,7.5);
#41=CIRCLE('',#197,7.5);
#42=CIRCLE('',#199,5.75);
#43=CIRCLE('',#200,5.75);
#44=CIRCLE('',#202,7.75);
#45=CIRCLE('',#203,7.75);
#46=CIRCLE('',#205,9.5);
#47=CIRCLE('',#206,2.24165117714599);
#48=CIRCLE('',#207,7.5);
#49=CIRCLE('',#209,9.5);
#50=CIRCLE('',#211,7.5);
#51=CIRCLE('',#212,2.24165117714599);
#52=ORIENTED_EDGE('',*,*,#100,.F.);
#53=ORIENTED_EDGE('',*,*,#101,.F.);
#54=ORIENTED_EDGE('',*,*,#102,.F.);
#55=ORIENTED_EDGE('',*,*,#103,.F.);
#56=ORIENTED_EDGE('',*,*,#104,.T.);
#57=ORIENTED_EDGE('',*,*,#102,.T.);
#58=ORIENTED_EDGE('',*,*,#105,.F.);
#59=ORIENTED_EDGE('',*,*,#106,.T.);
#60=ORIENTED_EDGE('',*,*,#107,.T.);
#61=ORIENTED_EDGE('',*,*,#100,.T.);
#62=ORIENTED_EDGE('',*,*,#108,.F.);
#63=ORIENTED_EDGE('',*,*,#109,.T.);
#64=ORIENTED_EDGE('',*,*,#110,.T.);
#65=ORIENTED_EDGE('',*,*,#106,.F.);
#66=ORIENTED_EDGE('',*,*,#111,.F.);
#67=ORIENTED_EDGE('',*,*,#112,.T.);
#68=ORIENTED_EDGE('',*,*,#113,.T.);
#69=ORIENTED_EDGE('',*,*,#109,.F.);
#70=ORIENTED_EDGE('',*,*,#114,.F.);
#71=ORIENTED_EDGE('',*,*,#115,.T.);
#72=ORIENTED_EDGE('',*,*,#116,.F.);
#73=ORIENTED_EDGE('',*,*,#117,.T.);
#74=ORIENTED_EDGE('',*,*,#118,.T.);
#75=ORIENTED_EDGE('',*,*,#114,.T.);
#76=ORIENTED_EDGE('',*,*,#108,.T.);
#77=ORIENTED_EDGE('',*,*,#103,.T.);
#78=ORIENTED_EDGE('',*,*,#104,.F.);
#79=ORIENTED_EDGE('',*,*,#110,.F.);
#80=ORIENTED_EDGE('',*,*,#119,.F.);
#81=ORIENTED_EDGE('',*,*,#120,.T.);
#82=ORIENTED_EDGE('',*,*,#116,.T.);
#83=ORIENTED_EDGE('',*,*,#112,.F.);
#84=ORIENTED_EDGE('',*,*,#121,.F.);
#85=ORIENTED_EDGE('',*,*,#122,.T.);
#86=ORIENTED_EDGE('',*,*,#119,.T.);
#87=ORIENTED_EDGE('',*,*,#111,.T.);
#88=ORIENTED_EDGE('',*,*,#105,.T.);
#89=ORIENTED_EDGE('',*,*,#101,.T.);
#90=ORIENTED_EDGE('',*,*,#107,.F.);
#91=ORIENTED_EDGE('',*,*,#113,.F.);
#92=ORIENTED_EDGE('',*,*,#118,.F.);
#93=ORIENTED_EDGE('',*,*,#123,.T.);
#94=ORIENTED_EDGE('',*,*,#121,.T.);
#95=ORIENTED_EDGE('',*,*,#115,.F.);
#96=ORIENTED_EDGE('',*,*,#123,.F.);
#97=ORIENTED_EDGE('',*,*,#117,.F.);
#98=ORIENTED_EDGE('',*,*,#120,.F.);
#99=ORIENTED_EDGE('',*,*,#122,.F.);
#100=EDGE_CURVE('',#124,#125,#140,.T.);
#101=EDGE_CURVE('',#126,#124,#36,.F.);
#102=EDGE_CURVE('',#127,#126,#141,.T.);
#103=EDGE_CURVE('',#125,#127,#37,.F.);
#104=EDGE_CURVE('',#128,#127,#38,.T.);
#105=EDGE_CURVE('',#129,#126,#39,.T.);
#106=EDGE_CURVE('',#129,#128,#22,.F.);
#107=EDGE_CURVE('',#130,#124,#40,.T.);
#108=EDGE_CURVE('',#131,#125,#41,.T.);
#109=EDGE_CURVE('',#131,#130,#23,.F.);
#110=EDGE_CURVE('',#132,#128,#42,.T.);
#111=EDGE_CURVE('',#133,#129,#43,.T.);
#112=EDGE_CURVE('',#133,#132,#24,.F.);
#113=EDGE_CURVE('',#134,#130,#44,.T.);
#114=EDGE_CURVE('',#135,#131,#45,.T.);
#115=EDGE_CURVE('',#135,#134,#25,.F.);
#116=EDGE_CURVE('',#136,#132,#46,.T.);
#117=EDGE_CURVE('',#136,#137,#47,.F.);
#118=EDGE_CURVE('',#137,#135,#48,.T.);
#119=EDGE_CURVE('',#138,#133,#49,.T.);
#120=EDGE_CURVE('',#138,#136,#142,.T.);
#121=EDGE_CURVE('',#139,#134,#50,.T.);
#122=EDGE_CURVE('',#139,#138,#51,.F.);
#123=EDGE_CURVE('',#137,#139,#143,.T.);
#124=VERTEX_POINT('',#279);
#125=VERTEX_POINT('',#280);
#126=VERTEX_POINT('',#282);
#127=VERTEX_POINT('',#288);
#128=VERTEX_POINT('',#292);
#129=VERTEX_POINT('',#294);
#130=VERTEX_POINT('',#298);
#131=VERTEX_POINT('',#300);
#132=VERTEX_POINT('',#304);
#133=VERTEX_POINT('',#306);
#134=VERTEX_POINT('',#310);
#135=VERTEX_POINT('',#312);
#136=VERTEX_POINT('',#316);
#137=VERTEX_POINT('',#318);
#138=VERTEX_POINT('',#322);
#139=VERTEX_POINT('',#330);
#140=B_SPLINE_CURVE_WITH_KNOTS('',3,(#275,#276,#277,#278),.UNSPECIFIED.,
 .F.,.F.,(4,4),(3.23233292896169E-7,0.00188722866982497),.UNSPECIFIED.);
#141=B_SPLINE_CURVE_WITH_KNOTS('',3,(#283,#284,#285,#286,#287),
 .UNSPECIFIED.,.F.,.F.,(4,1,4),(3.65787169681953E-7,0.000982533042894553,
0.00196470029861942),.UNSPECIFIED.);
#142=B_SPLINE_CURVE_WITH_KNOTS('',3,(#323,#324,#325,#326,#327),
 .UNSPECIFIED.,.F.,.F.,(4,1,4),(3.65787169660134E-7,0.000982533042894533,
0.00196470029861941),.UNSPECIFIED.);
#143=B_SPLINE_CURVE_WITH_KNOTS('',3,(#333,#334,#335,#336),.UNSPECIFIED.,
 .F.,.F.,(4,4),(3.23233292727784E-7,0.0018872286698248),.UNSPECIFIED.);
#144=EDGE_LOOP('',(#52,#53,#54,#55));
#145=EDGE_LOOP('',(#56,#57,#58,#59));
#146=EDGE_LOOP('',(#60,#61,#62,#63));
#147=EDGE_LOOP('',(#64,#65,#66,#67));
#148=EDGE_LOOP('',(#68,#69,#70,#71));
#149=EDGE_LOOP('',(#72,#73,#74,#75,#76,#77,#78,#79));
#150=EDGE_LOOP('',(#80,#81,#82,#83));
#151=EDGE_LOOP('',(#84,#85,#86,#87,#88,#89,#90,#91));
#152=EDGE_LOOP('',(#92,#93,#94,#95));
#153=EDGE_LOOP('',(#96,#97,#98,#99));
#154=FACE_BOUND('',#144,.T.);
#155=FACE_BOUND('',#145,.T.);
#156=FACE_BOUND('',#146,.T.);
#157=FACE_BOUND('',#147,.T.);
#158=FACE_BOUND('',#148,.T.);
#159=FACE_BOUND('',#149,.T.);
#160=FACE_BOUND('',#150,.T.);
#161=FACE_BOUND('',#151,.T.);
#162=FACE_BOUND('',#152,.T.);
#163=FACE_BOUND('',#153,.T.);
#164=SPHERICAL_SURFACE('',#189,2.425);
#165=SPHERICAL_SURFACE('',#214,2.425);
#166=ADVANCED_FACE('',(#154),#164,.T.);
#167=ADVANCED_FACE('',(#155),#30,.T.);
#168=ADVANCED_FACE('',(#156),#31,.F.);
#169=ADVANCED_FACE('',(#157),#32,.F.);
#170=ADVANCED_FACE('',(#158),#33,.T.);
#171=ADVANCED_FACE('',(#159),#20,.T.);
#172=ADVANCED_FACE('',(#160),#34,.T.);
#173=ADVANCED_FACE('',(#161),#21,.T.);
#174=ADVANCED_FACE('',(#162),#35,.F.);
#175=ADVANCED_FACE('',(#163),#165,.T.);
#176=CLOSED_SHELL('',(#166,#167,#168,#169,#170,#171,#172,#173,#174,#175));
#177=STYLED_ITEM('',(#178),#185);
#178=PRESENTATION_STYLE_ASSIGNMENT((#179));
#179=SURFACE_STYLE_USAGE(.BOTH.,#180);
#180=SURFACE_SIDE_STYLE('',(#181));
#181=SURFACE_STYLE_FILL_AREA(#182);
#182=FILL_AREA_STYLE('',(#183));
#183=FILL_AREA_STYLE_COLOUR('',#184);
#184=COLOUR_RGB('',0.645180702209473,0.678915679454803,0.699999988079071);
#185=MANIFOLD_SOLID_BREP('',#176);
#186=SHAPE_DEFINITION_REPRESENTATION(#344,#187);
#187=SHAPE_REPRESENTATION('520004000',(#188),#339);
#188=AXIS2_PLACEMENT_3D('',#273,#215,#216);
#189=AXIS2_PLACEMENT_3D('',#274,#217,#218);
#190=AXIS2_PLACEMENT_3D('',#281,#219,#220);
#191=AXIS2_PLACEMENT_3D('',#289,#221,#222);
#192=AXIS2_PLACEMENT_3D('',#290,#223,#224);
#193=AXIS2_PLACEMENT_3D('',#291,#225,#226);
#194=AXIS2_PLACEMENT_3D('',#293,#227,#228);
#195=AXIS2_PLACEMENT_3D('',#296,#230,#231);
#196=AXIS2_PLACEMENT_3D('',#297,#232,#233);
#197=AXIS2_PLACEMENT_3D('',#299,#234,#235);
#198=AXIS2_PLACEMENT_3D('',#302,#237,#238);
#199=AXIS2_PLACEMENT_3D('',#303,#239,#240);
#200=AXIS2_PLACEMENT_3D('',#305,#241,#242);
#201=AXIS2_PLACEMENT_3D('',#308,#244,#245);
#202=AXIS2_PLACEMENT_3D('',#309,#246,#247);
#203=AXIS2_PLACEMENT_3D('',#311,#248,#249);
#204=AXIS2_PLACEMENT_3D('',#314,#251,#252);
#205=AXIS2_PLACEMENT_3D('',#315,#253,#254);
#206=AXIS2_PLACEMENT_3D('',#317,#255,#256);
#207=AXIS2_PLACEMENT_3D('',#319,#257,#258);
#208=AXIS2_PLACEMENT_3D('',#320,#259,#260);
#209=AXIS2_PLACEMENT_3D('',#321,#261,#262);
#210=AXIS2_PLACEMENT_3D('',#328,#263,#264);
#211=AXIS2_PLACEMENT_3D('',#329,#265,#266);
#212=AXIS2_PLACEMENT_3D('',#331,#267,#268);
#213=AXIS2_PLACEMENT_3D('',#332,#269,#270);
#214=AXIS2_PLACEMENT_3D('',#337,#271,#272);
#215=DIRECTION('',(0.,0.,1.));
#216=DIRECTION('',(1.,0.,0.));
#217=DIRECTION('',(0.,1.,0.));
#218=DIRECTION('',(-1.,0.,0.));
#219=DIRECTION('',(0.,1.,0.));
#220=DIRECTION('',(0.,0.,1.));
#221=DIRECTION('',(0.,-1.,0.));
#222=DIRECTION('',(0.,0.,-1.));
#223=DIRECTION('',(0.,1.,0.));
#224=DIRECTION('',(0.,0.,1.));
#225=DIRECTION('',(0.,1.,0.));
#226=DIRECTION('',(-0.714948760921755,0.,-0.699176851201789));
#227=DIRECTION('',(0.,1.,0.));
#228=DIRECTION('',(-0.714948760921755,0.,-0.699176851201789));
#229=DIRECTION('',(-4.28108207213616E-17,1.,4.37765397641108E-17));
#230=DIRECTION('',(0.,1.,0.));
#231=DIRECTION('',(0.,0.,1.));
#232=DIRECTION('',(0.,1.,0.));
#233=DIRECTION('',(-0.714948760921755,0.,-0.699176851201788));
#234=DIRECTION('',(0.,1.,0.));
#235=DIRECTION('',(-0.714948760921755,0.,-0.699176851201788));
#236=DIRECTION('',(4.28108207213616E-17,-1.,-4.37765397641108E-17));
#237=DIRECTION('',(0.,-1.,0.));
#238=DIRECTION('',(0.,0.,-1.));
#239=DIRECTION('',(0.,-1.,0.));
#240=DIRECTION('',(-0.714948760921755,0.,0.699176851201788));
#241=DIRECTION('',(0.,-1.,0.));
#242=DIRECTION('',(-0.714948760921755,0.,0.699176851201788));
#243=DIRECTION('',(-4.28108207213616E-17,1.,-4.37765397641109E-17));
#244=DIRECTION('',(0.,-1.,0.));
#245=DIRECTION('',(0.,0.,-1.));
#246=DIRECTION('',(0.,-1.,0.));
#247=DIRECTION('',(-0.714948760921755,0.,0.699176851201788));
#248=DIRECTION('',(0.,-1.,0.));
#249=DIRECTION('',(-0.714948760921755,0.,0.699176851201788));
#250=DIRECTION('',(4.28108207213616E-17,-1.,4.37765397641109E-17));
#251=DIRECTION('',(0.,-1.,0.));
#252=DIRECTION('',(0.,0.,-1.));
#253=DIRECTION('',(0.,1.,0.));
#254=DIRECTION('',(0.32399669516387,0.,0.946058212544498));
#255=DIRECTION('',(0.,-1.,0.));
#256=DIRECTION('',(0.,0.,-1.));
#257=DIRECTION('',(0.,1.,0.));
#258=DIRECTION('',(0.32399669516387,0.,0.946058212544498));
#259=DIRECTION('',(0.,1.,0.));
#260=DIRECTION('',(0.,0.,1.));
#261=DIRECTION('',(0.,1.,0.));
#262=DIRECTION('',(0.32399669516387,0.,0.946058212544498));
#263=DIRECTION('',(0.,1.,0.));
#264=DIRECTION('',(0.,0.,1.));
#265=DIRECTION('',(0.,1.,0.));
#266=DIRECTION('',(0.32399669516387,0.,0.946058212544498));
#267=DIRECTION('',(0.,1.,0.));
#268=DIRECTION('',(0.,0.,1.));
#269=DIRECTION('',(0.,1.,0.));
#270=DIRECTION('',(0.,0.,1.));
#271=DIRECTION('',(0.,-1.,0.));
#272=DIRECTION('',(-1.,0.,0.));
#273=CARTESIAN_POINT('',(0.,0.,0.));
#274=CARTESIAN_POINT('',(7.825,0.,25.575));
#275=CARTESIAN_POINT('',(6.0857063905227,0.925,24.1608367350156));
#276=CARTESIAN_POINT('',(5.89916282758101,0.33524204575398,24.0045096077044));
#277=CARTESIAN_POINT('',(5.89916036825981,-0.335234270603684,24.0045075467455));
#278=CARTESIAN_POINT('',(6.0857063905227,-0.925,24.1608367350156));
#279=CARTESIAN_POINT('',(6.0857063905227,0.925,24.1608367350156));
#280=CARTESIAN_POINT('',(6.0857063905227,-0.925,24.1608367350156));
#281=CARTESIAN_POINT('',(7.825,0.925,25.575));
#282=CARTESIAN_POINT('',(5.73411253123779,0.925,26.3832014556861));
#283=CARTESIAN_POINT('',(5.73411253123779,-0.925,26.3832014556861));
#284=CARTESIAN_POINT('',(5.573955216931,-0.653721750249083,26.2793430180348));
#285=CARTESIAN_POINT('',(5.39916896972715,-0.00301238586766041,26.1548471796315));
#286=CARTESIAN_POINT('',(5.57390869153405,0.65364294443051,26.2793128473551));
#287=CARTESIAN_POINT('',(5.73411253123779,0.924999999999999,26.3832014556861));
#288=CARTESIAN_POINT('',(5.73411253123779,-0.925,26.3832014556861));
#289=CARTESIAN_POINT('',(7.825,-0.925,25.575));
#290=CARTESIAN_POINT('',(10.9029686040568,0.,18.4124469808273));
#291=CARTESIAN_POINT('',(10.9029686040568,-0.925,18.4124469808273));
#292=CARTESIAN_POINT('',(4.11095537530009,-0.925,11.7702668944103));
#293=CARTESIAN_POINT('',(10.9029686040568,0.925,18.4124469808273));
#294=CARTESIAN_POINT('',(4.11095537530009,0.925,11.7702668944103));
#295=CARTESIAN_POINT('',(4.11095537530009,-0.925,11.7702668944103));
#296=CARTESIAN_POINT('',(10.9029686040568,0.,18.4124469808273));
#297=CARTESIAN_POINT('',(10.9029686040568,0.925,18.4124469808273));
#298=CARTESIAN_POINT('',(5.5408528971436,0.925,13.1686205968139));
#299=CARTESIAN_POINT('',(10.9029686040568,-0.925,18.4124469808273));
#300=CARTESIAN_POINT('',(5.5408528971436,-0.925,13.1686205968139));
#301=CARTESIAN_POINT('',(5.5408528971436,0.925,13.1686205968139));
#302=CARTESIAN_POINT('',(2.50956375473434E-26,0.,7.75));
#303=CARTESIAN_POINT('',(2.50956375473434E-26,-0.925,7.75));
#304=CARTESIAN_POINT('',(-4.11095537530008,-0.925,11.7702668944103));
#305=CARTESIAN_POINT('',(2.50956375473434E-26,0.925,7.75));
#306=CARTESIAN_POINT('',(-4.11095537530008,0.925,11.7702668944103));
#307=CARTESIAN_POINT('',(-4.11095537530008,-0.925,11.7702668944103));
#308=CARTESIAN_POINT('',(2.50956375473434E-26,0.,7.75));
#309=CARTESIAN_POINT('',(2.50956375473434E-26,0.925,7.75));
#310=CARTESIAN_POINT('',(-5.54085289714359,0.925,13.1686205968139));
#311=CARTESIAN_POINT('',(2.50956375473434E-26,-0.925,7.75));
#312=CARTESIAN_POINT('',(-5.54085289714359,-0.925,13.1686205968139));
#313=CARTESIAN_POINT('',(-5.54085289714359,0.925,13.1686205968139));
#314=CARTESIAN_POINT('',(-8.47299339032774,-0.925,25.507883574911));
#315=CARTESIAN_POINT('',(-10.9029686040568,-0.925,18.4124469808273));
#316=CARTESIAN_POINT('',(-5.73411253123779,-0.925,26.3832014556861));
#317=CARTESIAN_POINT('',(-7.825,-0.925,25.575));
#318=CARTESIAN_POINT('',(-6.0857063905227,-0.925,24.1608367350156));
#319=CARTESIAN_POINT('',(-10.9029686040568,-0.925,18.4124469808273));
#320=CARTESIAN_POINT('',(-10.9029686040568,0.,18.4124469808273));
#321=CARTESIAN_POINT('',(-10.9029686040568,0.925,18.4124469808273));
#322=CARTESIAN_POINT('',(-5.73411253123779,0.925,26.3832014556861));
#323=CARTESIAN_POINT('',(-5.73411253123779,0.924999999999999,26.3832014556861));
#324=CARTESIAN_POINT('',(-5.573955216931,0.653721750249081,26.2793430180348));
#325=CARTESIAN_POINT('',(-5.39916896972716,0.00301238586765992,26.1548471796315));
#326=CARTESIAN_POINT('',(-5.57390869153405,-0.653642944430513,26.2793128473551));
#327=CARTESIAN_POINT('',(-5.73411253123779,-0.925000000000002,26.3832014556861));
#328=CARTESIAN_POINT('',(-7.825,0.925,27.4));
#329=CARTESIAN_POINT('',(-10.9029686040568,0.925,18.4124469808273));
#330=CARTESIAN_POINT('',(-6.0857063905227,0.925,24.1608367350156));
#331=CARTESIAN_POINT('',(-7.825,0.925,25.575));
#332=CARTESIAN_POINT('',(-10.9029686040568,0.,18.4124469808273));
#333=CARTESIAN_POINT('',(-6.0857063905227,-0.925,24.1608367350156));
#334=CARTESIAN_POINT('',(-5.89916282758101,-0.335242045753973,24.0045096077044));
#335=CARTESIAN_POINT('',(-5.89916036825981,0.335234270603682,24.0045075467455));
#336=CARTESIAN_POINT('',(-6.0857063905227,0.925,24.1608367350156));
#337=CARTESIAN_POINT('',(-7.825,0.,25.575));
#338=MECHANICAL_DESIGN_GEOMETRIC_PRESENTATION_REPRESENTATION('',(#177),
#339);
#339=(
GEOMETRIC_REPRESENTATION_CONTEXT(3)
GLOBAL_UNCERTAINTY_ASSIGNED_CONTEXT((#340))
GLOBAL_UNIT_ASSIGNED_CONTEXT((#343,#342,#341))
REPRESENTATION_CONTEXT('520004000','TOP_LEVEL_ASSEMBLY_PART')
);
#340=UNCERTAINTY_MEASURE_WITH_UNIT(LENGTH_MEASURE(0.005),#343,
'DISTANCE_ACCURACY_VALUE','Maximum Tolerance applied to model');
#341=(
NAMED_UNIT(*)
SI_UNIT($,.STERADIAN.)
SOLID_ANGLE_UNIT()
);
#342=(
NAMED_UNIT(*)
PLANE_ANGLE_UNIT()
SI_UNIT($,.RADIAN.)
);
#343=(
LENGTH_UNIT()
NAMED_UNIT(*)
SI_UNIT(.MILLI.,.METRE.)
);
#344=PRODUCT_DEFINITION_SHAPE('','',#345);
#345=PRODUCT_DEFINITION('','',#347,#346);
#346=PRODUCT_DEFINITION_CONTEXT('',#353,'design');
#347=PRODUCT_DEFINITION_FORMATION_WITH_SPECIFIED_SOURCE('','',#349,
 .NOT_KNOWN.);
#348=PRODUCT_RELATED_PRODUCT_CATEGORY('','',(#349));
#349=PRODUCT('520004000','520004000','520004000',(#351));
#350=PRODUCT_CATEGORY('','');
#351=PRODUCT_CONTEXT('',#353,'mechanical');
#352=APPLICATION_PROTOCOL_DEFINITION('international standard',
'automotive_design',2010,#353);
#353=APPLICATION_CONTEXT(
'core data for automotive mechanical design processes');
ENDSEC;
END-ISO-10303-21;
