ISO-10303-21;
HEADER;
/* Generated by software containing ST-Developer
 * from STEP Tools, Inc. (www.steptools.com) 
 */
/* OPTION: strings as raw bytes, not using required /X/ escapes */

FILE_DESCRIPTION(
/* description */ ('Unknown'),
/* implementation_level */ '2;1');

FILE_NAME(
/* name */ '520003000',
/* time_stamp */ '2019-01-07T15:53:35+01:00',
/* author */ ('Unknown'),
/* organization */ ('Unknown'),
/* preprocessor_version */ 'ST-DEVELOPER v16.7',
/* originating_system */ 'DEX',
/* authorisation */ $);

FILE_SCHEMA (('AUTOMOTIVE_DESIGN {1 0 10303 214 3 1 1}'));
ENDSEC;

DATA;
#10=PROPERTY_DEFINITION_REPRESENTATION(#14,#12);
#11=PROPERTY_DEFINITION_REPRESENTATION(#15,#13);
#12=REPRESENTATION('',(#16),#337);
#13=REPRESENTATION('',(#17),#337);
#14=PROPERTY_DEFINITION('pmi validation property','',#342);
#15=PROPERTY_DEFINITION('pmi validation property','',#342);
#16=VALUE_REPRESENTATION_ITEM('number of annotations',COUNT_MEASURE(0.));
#17=VALUE_REPRESENTATION_ITEM('number of views',COUNT_MEASURE(0.));
#18=SHAPE_REPRESENTATION_RELATIONSHIP('','',#187,#19);
#19=ADVANCED_BREP_SHAPE_REPRESENTATION('',(#185),#337);
#20=PLANE('',#204);
#21=PLANE('',#210);
#22=LINE('',#294,#26);
#23=LINE('',#300,#27);
#24=LINE('',#306,#28);
#25=LINE('',#312,#29);
#26=VECTOR('',#229,1000.);
#27=VECTOR('',#236,1000.);
#28=VECTOR('',#243,1000.);
#29=VECTOR('',#250,1000.);
#30=CYLINDRICAL_SURFACE('',#192,9.96046871846906);
#31=CYLINDRICAL_SURFACE('',#195,7.96046871846906);
#32=CYLINDRICAL_SURFACE('',#198,4.15);
#33=CYLINDRICAL_SURFACE('',#201,6.15);
#34=CYLINDRICAL_SURFACE('',#208,9.96046871846906);
#35=CYLINDRICAL_SURFACE('',#213,7.96046871846906);
#36=CIRCLE('',#190,2.31408729308123);
#37=CIRCLE('',#191,2.31408729308123);
#38=CIRCLE('',#193,9.96046871846906);
#39=CIRCLE('',#194,9.96046871846906);
#40=CIRCLE('',#196,7.96046871846906);
#41=CIRCLE('',#197,7.96046871846906);
#42=CIRCLE('',#199,4.15);
#43=CIRCLE('',#200,4.15);
#44=CIRCLE('',#202,6.15);
#45=CIRCLE('',#203,6.15);
#46=CIRCLE('',#205,9.96046871846906);
#47=CIRCLE('',#206,2.31408729308123);
#48=CIRCLE('',#207,7.96046871846906);
#49=CIRCLE('',#209,9.96046871846906);
#50=CIRCLE('',#211,7.96046871846906);
#51=CIRCLE('',#212,2.31408729308123);
#52=ORIENTED_EDGE('',*,*,#100,.F.);
#53=ORIENTED_EDGE('',*,*,#101,.F.);
#54=ORIENTED_EDGE('',*,*,#102,.F.);
#55=ORIENTED_EDGE('',*,*,#103,.F.);
#56=ORIENTED_EDGE('',*,*,#104,.T.);
#57=ORIENTED_EDGE('',*,*,#102,.T.);
#58=ORIENTED_EDGE('',*,*,#105,.F.);
#59=ORIENTED_EDGE('',*,*,#106,.T.);
#60=ORIENTED_EDGE('',*,*,#107,.T.);
#61=ORIENTED_EDGE('',*,*,#100,.T.);
#62=ORIENTED_EDGE('',*,*,#108,.F.);
#63=ORIENTED_EDGE('',*,*,#109,.T.);
#64=ORIENTED_EDGE('',*,*,#110,.T.);
#65=ORIENTED_EDGE('',*,*,#106,.F.);
#66=ORIENTED_EDGE('',*,*,#111,.F.);
#67=ORIENTED_EDGE('',*,*,#112,.T.);
#68=ORIENTED_EDGE('',*,*,#113,.T.);
#69=ORIENTED_EDGE('',*,*,#109,.F.);
#70=ORIENTED_EDGE('',*,*,#114,.F.);
#71=ORIENTED_EDGE('',*,*,#115,.T.);
#72=ORIENTED_EDGE('',*,*,#116,.F.);
#73=ORIENTED_EDGE('',*,*,#117,.T.);
#74=ORIENTED_EDGE('',*,*,#118,.T.);
#75=ORIENTED_EDGE('',*,*,#114,.T.);
#76=ORIENTED_EDGE('',*,*,#108,.T.);
#77=ORIENTED_EDGE('',*,*,#103,.T.);
#78=ORIENTED_EDGE('',*,*,#104,.F.);
#79=ORIENTED_EDGE('',*,*,#110,.F.);
#80=ORIENTED_EDGE('',*,*,#119,.F.);
#81=ORIENTED_EDGE('',*,*,#120,.T.);
#82=ORIENTED_EDGE('',*,*,#116,.T.);
#83=ORIENTED_EDGE('',*,*,#112,.F.);
#84=ORIENTED_EDGE('',*,*,#121,.F.);
#85=ORIENTED_EDGE('',*,*,#122,.T.);
#86=ORIENTED_EDGE('',*,*,#119,.T.);
#87=ORIENTED_EDGE('',*,*,#111,.T.);
#88=ORIENTED_EDGE('',*,*,#105,.T.);
#89=ORIENTED_EDGE('',*,*,#101,.T.);
#90=ORIENTED_EDGE('',*,*,#107,.F.);
#91=ORIENTED_EDGE('',*,*,#113,.F.);
#92=ORIENTED_EDGE('',*,*,#118,.F.);
#93=ORIENTED_EDGE('',*,*,#123,.T.);
#94=ORIENTED_EDGE('',*,*,#121,.T.);
#95=ORIENTED_EDGE('',*,*,#115,.F.);
#96=ORIENTED_EDGE('',*,*,#123,.F.);
#97=ORIENTED_EDGE('',*,*,#117,.F.);
#98=ORIENTED_EDGE('',*,*,#120,.F.);
#99=ORIENTED_EDGE('',*,*,#122,.F.);
#100=EDGE_CURVE('',#124,#125,#140,.T.);
#101=EDGE_CURVE('',#126,#124,#36,.F.);
#102=EDGE_CURVE('',#127,#126,#141,.T.);
#103=EDGE_CURVE('',#125,#127,#37,.F.);
#104=EDGE_CURVE('',#128,#127,#38,.T.);
#105=EDGE_CURVE('',#129,#126,#39,.T.);
#106=EDGE_CURVE('',#129,#128,#22,.F.);
#107=EDGE_CURVE('',#130,#124,#40,.T.);
#108=EDGE_CURVE('',#131,#125,#41,.T.);
#109=EDGE_CURVE('',#131,#130,#23,.F.);
#110=EDGE_CURVE('',#132,#128,#42,.T.);
#111=EDGE_CURVE('',#133,#129,#43,.T.);
#112=EDGE_CURVE('',#133,#132,#24,.F.);
#113=EDGE_CURVE('',#134,#130,#44,.T.);
#114=EDGE_CURVE('',#135,#131,#45,.T.);
#115=EDGE_CURVE('',#135,#134,#25,.F.);
#116=EDGE_CURVE('',#136,#132,#46,.T.);
#117=EDGE_CURVE('',#136,#137,#47,.F.);
#118=EDGE_CURVE('',#137,#135,#48,.T.);
#119=EDGE_CURVE('',#138,#133,#49,.T.);
#120=EDGE_CURVE('',#138,#136,#142,.T.);
#121=EDGE_CURVE('',#139,#134,#50,.T.);
#122=EDGE_CURVE('',#139,#138,#51,.F.);
#123=EDGE_CURVE('',#137,#139,#143,.T.);
#124=VERTEX_POINT('',#279);
#125=VERTEX_POINT('',#280);
#126=VERTEX_POINT('',#282);
#127=VERTEX_POINT('',#287);
#128=VERTEX_POINT('',#291);
#129=VERTEX_POINT('',#293);
#130=VERTEX_POINT('',#297);
#131=VERTEX_POINT('',#299);
#132=VERTEX_POINT('',#303);
#133=VERTEX_POINT('',#305);
#134=VERTEX_POINT('',#309);
#135=VERTEX_POINT('',#311);
#136=VERTEX_POINT('',#315);
#137=VERTEX_POINT('',#317);
#138=VERTEX_POINT('',#321);
#139=VERTEX_POINT('',#328);
#140=B_SPLINE_CURVE_WITH_KNOTS('',3,(#275,#276,#277,#278),.UNSPECIFIED.,
 .F.,.F.,(4,4),(3.13106294497002E-7,0.00146362615401452),.UNSPECIFIED.);
#141=B_SPLINE_CURVE_WITH_KNOTS('',3,(#283,#284,#285,#286),.UNSPECIFIED.,
 .F.,.F.,(4,4),(3.34341410769515E-7,0.00149604380072684),.UNSPECIFIED.);
#142=B_SPLINE_CURVE_WITH_KNOTS('',3,(#322,#323,#324,#325),.UNSPECIFIED.,
 .F.,.F.,(4,4),(3.34341410768582E-7,0.00149604380072684),.UNSPECIFIED.);
#143=B_SPLINE_CURVE_WITH_KNOTS('',3,(#331,#332,#333,#334),.UNSPECIFIED.,
 .F.,.F.,(4,4),(3.13106294478458E-7,0.0014636261540145),.UNSPECIFIED.);
#144=EDGE_LOOP('',(#52,#53,#54,#55));
#145=EDGE_LOOP('',(#56,#57,#58,#59));
#146=EDGE_LOOP('',(#60,#61,#62,#63));
#147=EDGE_LOOP('',(#64,#65,#66,#67));
#148=EDGE_LOOP('',(#68,#69,#70,#71));
#149=EDGE_LOOP('',(#72,#73,#74,#75,#76,#77,#78,#79));
#150=EDGE_LOOP('',(#80,#81,#82,#83));
#151=EDGE_LOOP('',(#84,#85,#86,#87,#88,#89,#90,#91));
#152=EDGE_LOOP('',(#92,#93,#94,#95));
#153=EDGE_LOOP('',(#96,#97,#98,#99));
#154=FACE_BOUND('',#144,.T.);
#155=FACE_BOUND('',#145,.T.);
#156=FACE_BOUND('',#146,.T.);
#157=FACE_BOUND('',#147,.T.);
#158=FACE_BOUND('',#148,.T.);
#159=FACE_BOUND('',#149,.T.);
#160=FACE_BOUND('',#150,.T.);
#161=FACE_BOUND('',#151,.T.);
#162=FACE_BOUND('',#152,.T.);
#163=FACE_BOUND('',#153,.T.);
#164=SPHERICAL_SURFACE('',#189,2.425);
#165=SPHERICAL_SURFACE('',#214,2.425);
#166=ADVANCED_FACE('',(#154),#164,.T.);
#167=ADVANCED_FACE('',(#155),#30,.T.);
#168=ADVANCED_FACE('',(#156),#31,.F.);
#169=ADVANCED_FACE('',(#157),#32,.F.);
#170=ADVANCED_FACE('',(#158),#33,.T.);
#171=ADVANCED_FACE('',(#159),#20,.T.);
#172=ADVANCED_FACE('',(#160),#34,.T.);
#173=ADVANCED_FACE('',(#161),#21,.T.);
#174=ADVANCED_FACE('',(#162),#35,.F.);
#175=ADVANCED_FACE('',(#163),#165,.T.);
#176=CLOSED_SHELL('',(#166,#167,#168,#169,#170,#171,#172,#173,#174,#175));
#177=STYLED_ITEM('',(#178),#185);
#178=PRESENTATION_STYLE_ASSIGNMENT((#179));
#179=SURFACE_STYLE_USAGE(.BOTH.,#180);
#180=SURFACE_SIDE_STYLE('',(#181));
#181=SURFACE_STYLE_FILL_AREA(#182);
#182=FILL_AREA_STYLE('',(#183));
#183=FILL_AREA_STYLE_COLOUR('',#184);
#184=COLOUR_RGB('',0.645180702209473,0.678915679454803,0.699999988079071);
#185=MANIFOLD_SOLID_BREP('',#176);
#186=SHAPE_DEFINITION_REPRESENTATION(#342,#187);
#187=SHAPE_REPRESENTATION('520003000',(#188),#337);
#188=AXIS2_PLACEMENT_3D('',#273,#215,#216);
#189=AXIS2_PLACEMENT_3D('',#274,#217,#218);
#190=AXIS2_PLACEMENT_3D('',#281,#219,#220);
#191=AXIS2_PLACEMENT_3D('',#288,#221,#222);
#192=AXIS2_PLACEMENT_3D('',#289,#223,#224);
#193=AXIS2_PLACEMENT_3D('',#290,#225,#226);
#194=AXIS2_PLACEMENT_3D('',#292,#227,#228);
#195=AXIS2_PLACEMENT_3D('',#295,#230,#231);
#196=AXIS2_PLACEMENT_3D('',#296,#232,#233);
#197=AXIS2_PLACEMENT_3D('',#298,#234,#235);
#198=AXIS2_PLACEMENT_3D('',#301,#237,#238);
#199=AXIS2_PLACEMENT_3D('',#302,#239,#240);
#200=AXIS2_PLACEMENT_3D('',#304,#241,#242);
#201=AXIS2_PLACEMENT_3D('',#307,#244,#245);
#202=AXIS2_PLACEMENT_3D('',#308,#246,#247);
#203=AXIS2_PLACEMENT_3D('',#310,#248,#249);
#204=AXIS2_PLACEMENT_3D('',#313,#251,#252);
#205=AXIS2_PLACEMENT_3D('',#314,#253,#254);
#206=AXIS2_PLACEMENT_3D('',#316,#255,#256);
#207=AXIS2_PLACEMENT_3D('',#318,#257,#258);
#208=AXIS2_PLACEMENT_3D('',#319,#259,#260);
#209=AXIS2_PLACEMENT_3D('',#320,#261,#262);
#210=AXIS2_PLACEMENT_3D('',#326,#263,#264);
#211=AXIS2_PLACEMENT_3D('',#327,#265,#266);
#212=AXIS2_PLACEMENT_3D('',#329,#267,#268);
#213=AXIS2_PLACEMENT_3D('',#330,#269,#270);
#214=AXIS2_PLACEMENT_3D('',#335,#271,#272);
#215=DIRECTION('',(0.,0.,1.));
#216=DIRECTION('',(1.,0.,0.));
#217=DIRECTION('',(0.,1.,0.));
#218=DIRECTION('',(-1.,0.,0.));
#219=DIRECTION('',(0.,1.,0.));
#220=DIRECTION('',(0.,0.,1.));
#221=DIRECTION('',(0.,-1.,0.));
#222=DIRECTION('',(0.,0.,-1.));
#223=DIRECTION('',(0.,1.,0.));
#224=DIRECTION('',(0.,0.,1.));
#225=DIRECTION('',(0.,1.,0.));
#226=DIRECTION('',(-0.835666235232203,0.,-0.54923760185628));
#227=DIRECTION('',(0.,1.,0.));
#228=DIRECTION('',(-0.835666235232203,0.,-0.54923760185628));
#229=DIRECTION('',(-3.36299928495683E-17,1.,5.1168109067009E-17));
#230=DIRECTION('',(0.,1.,0.));
#231=DIRECTION('',(0.,0.,1.));
#232=DIRECTION('',(0.,1.,0.));
#233=DIRECTION('',(-0.835666235232203,0.,-0.549237601856279));
#234=DIRECTION('',(0.,1.,0.));
#235=DIRECTION('',(-0.835666235232203,0.,-0.549237601856279));
#236=DIRECTION('',(3.36299928495683E-17,-1.,-5.1168109067009E-17));
#237=DIRECTION('',(0.,-1.,0.));
#238=DIRECTION('',(0.,0.,-1.));
#239=DIRECTION('',(0.,-1.,0.));
#240=DIRECTION('',(-0.835666235232202,0.,0.54923760185628));
#241=DIRECTION('',(0.,-1.,0.));
#242=DIRECTION('',(-0.835666235232202,0.,0.54923760185628));
#243=DIRECTION('',(-3.36299928495682E-17,1.,-5.11681090670091E-17));
#244=DIRECTION('',(0.,-1.,0.));
#245=DIRECTION('',(0.,0.,-1.));
#246=DIRECTION('',(0.,-1.,0.));
#247=DIRECTION('',(-0.835666235232202,0.,0.54923760185628));
#248=DIRECTION('',(0.,-1.,0.));
#249=DIRECTION('',(-0.835666235232202,0.,0.54923760185628));
#250=DIRECTION('',(3.36299928495682E-17,-1.,5.11681090670091E-17));
#251=DIRECTION('',(0.,-1.,0.));
#252=DIRECTION('',(0.,0.,-1.));
#253=DIRECTION('',(0.,1.,0.));
#254=DIRECTION('',(0.358079762321968,0.,0.933691000179097));
#255=DIRECTION('',(0.,-1.,0.));
#256=DIRECTION('',(0.,0.,-1.));
#257=DIRECTION('',(0.,1.,0.));
#258=DIRECTION('',(0.358079762321968,0.,0.933691000179097));
#259=DIRECTION('',(0.,1.,0.));
#260=DIRECTION('',(0.,0.,1.));
#261=DIRECTION('',(0.,1.,0.));
#262=DIRECTION('',(0.358079762321968,0.,0.933691000179097));
#263=DIRECTION('',(0.,1.,0.));
#264=DIRECTION('',(0.,0.,1.));
#265=DIRECTION('',(0.,1.,0.));
#266=DIRECTION('',(0.358079762321968,0.,0.933691000179097));
#267=DIRECTION('',(0.,1.,0.));
#268=DIRECTION('',(0.,0.,1.));
#269=DIRECTION('',(0.,1.,0.));
#270=DIRECTION('',(0.,0.,1.));
#271=DIRECTION('',(0.,-1.,0.));
#272=DIRECTION('',(-1.,0.,0.));
#273=CARTESIAN_POINT('',(0.,0.,0.));
#274=CARTESIAN_POINT('',(8.225,0.,21.375));
#275=CARTESIAN_POINT('',(6.49275873392382,0.725,19.8406140654637));
#276=CARTESIAN_POINT('',(6.38236721012553,0.252847645778544,19.7421475060008));
#277=CARTESIAN_POINT('',(6.38236655839985,-0.252844858301754,19.7421469246773));
#278=CARTESIAN_POINT('',(6.49275873392382,-0.725,19.8406140654637));
#279=CARTESIAN_POINT('',(6.49275873392382,0.725,19.8406140654637));
#280=CARTESIAN_POINT('',(6.49275873392382,-0.725,19.8406140654637));
#281=CARTESIAN_POINT('',(8.225,0.725,21.375));
#282=CARTESIAN_POINT('',(5.99739053259809,0.725,22.0017025297072));
#283=CARTESIAN_POINT('',(5.99739053259808,-0.725,22.0017025297071));
#284=CARTESIAN_POINT('',(5.81324163456368,-0.273035494817859,21.8700011905494));
#285=CARTESIAN_POINT('',(5.81320754688794,0.272951831979463,21.8699768114051));
#286=CARTESIAN_POINT('',(5.99739053259808,0.725000000000006,22.0017025297071));
#287=CARTESIAN_POINT('',(5.99739053259808,-0.725,22.0017025297071));
#288=CARTESIAN_POINT('',(8.225,-0.725,21.375));
#289=CARTESIAN_POINT('',(11.7916422713248,0.,13.9));
#290=CARTESIAN_POINT('',(11.7916422713248,-0.725,13.9));
#291=CARTESIAN_POINT('',(3.46801487621364,-0.725,8.42933604770356));
#292=CARTESIAN_POINT('',(11.7916422713248,0.725,13.9));
#293=CARTESIAN_POINT('',(3.46801487621364,0.725,8.42933604770356));
#294=CARTESIAN_POINT('',(3.46801487621364,-0.725,8.42933604770356));
#295=CARTESIAN_POINT('',(11.7916422713248,0.,13.9));
#296=CARTESIAN_POINT('',(11.7916422713248,0.725,13.9));
#297=CARTESIAN_POINT('',(5.13934734667805,0.725,9.52781125141612));
#298=CARTESIAN_POINT('',(11.7916422713248,-0.725,13.9));
#299=CARTESIAN_POINT('',(5.13934734667805,-0.725,9.52781125141612));
#300=CARTESIAN_POINT('',(5.13934734667805,0.725,9.52781125141612));
#301=CARTESIAN_POINT('',(-1.13743881771555E-25,0.,6.15));
#302=CARTESIAN_POINT('',(-1.13743881771555E-25,-0.725,6.15));
#303=CARTESIAN_POINT('',(-3.46801487621364,-0.725,8.42933604770357));
#304=CARTESIAN_POINT('',(-1.13743881771555E-25,0.725,6.15));
#305=CARTESIAN_POINT('',(-3.46801487621364,0.725,8.42933604770357));
#306=CARTESIAN_POINT('',(-3.46801487621364,-0.725,8.42933604770357));
#307=CARTESIAN_POINT('',(-1.13743881771555E-25,0.,6.15));
#308=CARTESIAN_POINT('',(-1.13743881771555E-25,0.725,6.15));
#309=CARTESIAN_POINT('',(-5.13934734667804,0.725,9.52781125141613));
#310=CARTESIAN_POINT('',(-1.13743881771555E-25,-0.725,6.15));
#311=CARTESIAN_POINT('',(-5.13934734667804,-0.725,9.52781125141613));
#312=CARTESIAN_POINT('',(-5.13934734667804,0.725,9.52781125141613));
#313=CARTESIAN_POINT('',(-8.94115952464394,-0.725,21.3326179996418));
#314=CARTESIAN_POINT('',(-11.7916422713248,-0.725,13.9));
#315=CARTESIAN_POINT('',(-5.99739053259808,-0.725,22.0017025297071));
#316=CARTESIAN_POINT('',(-8.225,-0.725,21.375));
#317=CARTESIAN_POINT('',(-6.49275873392382,-0.725,19.8406140654637));
#318=CARTESIAN_POINT('',(-11.7916422713248,-0.725,13.9));
#319=CARTESIAN_POINT('',(-11.7916422713248,0.,13.9));
#320=CARTESIAN_POINT('',(-11.7916422713248,0.725,13.9));
#321=CARTESIAN_POINT('',(-5.99739053259808,0.725,22.0017025297071));
#322=CARTESIAN_POINT('',(-5.99739053259808,0.725,22.0017025297071));
#323=CARTESIAN_POINT('',(-5.81324163456368,0.273035494817861,21.8700011905494));
#324=CARTESIAN_POINT('',(-5.81320754688794,-0.272951831979459,21.8699768114051));
#325=CARTESIAN_POINT('',(-5.99739053259808,-0.725000000000001,22.0017025297071));
#326=CARTESIAN_POINT('',(-8.225,0.725,23.2));
#327=CARTESIAN_POINT('',(-11.7916422713248,0.725,13.9));
#328=CARTESIAN_POINT('',(-6.49275873392382,0.725,19.8406140654637));
#329=CARTESIAN_POINT('',(-8.225,0.725,21.375));
#330=CARTESIAN_POINT('',(-11.7916422713248,0.,13.9));
#331=CARTESIAN_POINT('',(-6.49275873392382,-0.725,19.8406140654637));
#332=CARTESIAN_POINT('',(-6.38236721012553,-0.252847645778543,19.7421475060008));
#333=CARTESIAN_POINT('',(-6.38236655839985,0.252844858301754,19.7421469246773));
#334=CARTESIAN_POINT('',(-6.49275873392382,0.725,19.8406140654637));
#335=CARTESIAN_POINT('',(-8.225,0.,21.375));
#336=MECHANICAL_DESIGN_GEOMETRIC_PRESENTATION_REPRESENTATION('',(#177),
#337);
#337=(
GEOMETRIC_REPRESENTATION_CONTEXT(3)
GLOBAL_UNCERTAINTY_ASSIGNED_CONTEXT((#338))
GLOBAL_UNIT_ASSIGNED_CONTEXT((#341,#340,#339))
REPRESENTATION_CONTEXT('520003000','TOP_LEVEL_ASSEMBLY_PART')
);
#338=UNCERTAINTY_MEASURE_WITH_UNIT(LENGTH_MEASURE(0.005),#341,
'DISTANCE_ACCURACY_VALUE','Maximum Tolerance applied to model');
#339=(
NAMED_UNIT(*)
SI_UNIT($,.STERADIAN.)
SOLID_ANGLE_UNIT()
);
#340=(
NAMED_UNIT(*)
PLANE_ANGLE_UNIT()
SI_UNIT($,.RADIAN.)
);
#341=(
LENGTH_UNIT()
NAMED_UNIT(*)
SI_UNIT(.MILLI.,.METRE.)
);
#342=PRODUCT_DEFINITION_SHAPE('','',#343);
#343=PRODUCT_DEFINITION('','',#345,#344);
#344=PRODUCT_DEFINITION_CONTEXT('',#351,'design');
#345=PRODUCT_DEFINITION_FORMATION_WITH_SPECIFIED_SOURCE('','',#347,
 .NOT_KNOWN.);
#346=PRODUCT_RELATED_PRODUCT_CATEGORY('','',(#347));
#347=PRODUCT('520003000','520003000','520003000',(#349));
#348=PRODUCT_CATEGORY('','');
#349=PRODUCT_CONTEXT('',#351,'mechanical');
#350=APPLICATION_PROTOCOL_DEFINITION('international standard',
'automotive_design',2010,#351);
#351=APPLICATION_CONTEXT(
'core data for automotive mechanical design processes');
ENDSEC;
END-ISO-10303-21;
