ISO-10303-21;
HEADER;
/* Generated by software containing ST-Developer
 * from STEP Tools, Inc. (www.steptools.com) 
 */
/* OPTION: strings as raw bytes, not using required /X/ escapes */

FILE_DESCRIPTION(
/* description */ ('Unknown'),
/* implementation_level */ '2;1');

FILE_NAME(
/* name */ '520001000',
/* time_stamp */ '2019-01-07T15:33:12+01:00',
/* author */ ('Unknown'),
/* organization */ ('Unknown'),
/* preprocessor_version */ 'ST-DEVELOPER v16.7',
/* originating_system */ 'DEX',
/* authorisation */ $);

FILE_SCHEMA (('AUTOMOTIVE_DESIGN {1 0 10303 214 3 1 1}'));
ENDSEC;

DATA;
#10=PROPERTY_DEFINITION_REPRESENTATION(#14,#12);
#11=PROPERTY_DEFINITION_REPRESENTATION(#15,#13);
#12=REPRESENTATION('',(#16),#339);
#13=REPRESENTATION('',(#17),#339);
#14=PROPERTY_DEFINITION('pmi validation property','',#344);
#15=PROPERTY_DEFINITION('pmi validation property','',#344);
#16=VALUE_REPRESENTATION_ITEM('number of annotations',COUNT_MEASURE(0.));
#17=VALUE_REPRESENTATION_ITEM('number of views',COUNT_MEASURE(0.));
#18=SHAPE_REPRESENTATION_RELATIONSHIP('','',#187,#19);
#19=ADVANCED_BREP_SHAPE_REPRESENTATION('',(#185),#339);
#20=PLANE('',#204);
#21=PLANE('',#210);
#22=LINE('',#295,#26);
#23=LINE('',#301,#27);
#24=LINE('',#307,#28);
#25=LINE('',#313,#29);
#26=VECTOR('',#229,1000.);
#27=VECTOR('',#236,1000.);
#28=VECTOR('',#243,1000.);
#29=VECTOR('',#250,1000.);
#30=CYLINDRICAL_SURFACE('',#192,7.32305687901251);
#31=CYLINDRICAL_SURFACE('',#195,5.42305687901252);
#32=CYLINDRICAL_SURFACE('',#198,2.55);
#33=CYLINDRICAL_SURFACE('',#201,4.45);
#34=CYLINDRICAL_SURFACE('',#208,7.32305687901251);
#35=CYLINDRICAL_SURFACE('',#213,5.42305687901251);
#36=CIRCLE('',#190,2.08326666559997);
#37=CIRCLE('',#191,2.08326666559997);
#38=CIRCLE('',#193,7.32305687901251);
#39=CIRCLE('',#194,7.32305687901251);
#40=CIRCLE('',#196,5.42305687901252);
#41=CIRCLE('',#197,5.42305687901252);
#42=CIRCLE('',#199,2.55);
#43=CIRCLE('',#200,2.55);
#44=CIRCLE('',#202,4.45);
#45=CIRCLE('',#203,4.45);
#46=CIRCLE('',#205,7.32305687901251);
#47=CIRCLE('',#206,2.08326666559997);
#48=CIRCLE('',#207,5.42305687901251);
#49=CIRCLE('',#209,7.32305687901251);
#50=CIRCLE('',#211,5.42305687901251);
#51=CIRCLE('',#212,2.08326666559997);
#52=ORIENTED_EDGE('',*,*,#100,.F.);
#53=ORIENTED_EDGE('',*,*,#101,.F.);
#54=ORIENTED_EDGE('',*,*,#102,.F.);
#55=ORIENTED_EDGE('',*,*,#103,.F.);
#56=ORIENTED_EDGE('',*,*,#104,.T.);
#57=ORIENTED_EDGE('',*,*,#102,.T.);
#58=ORIENTED_EDGE('',*,*,#105,.F.);
#59=ORIENTED_EDGE('',*,*,#106,.T.);
#60=ORIENTED_EDGE('',*,*,#107,.T.);
#61=ORIENTED_EDGE('',*,*,#100,.T.);
#62=ORIENTED_EDGE('',*,*,#108,.F.);
#63=ORIENTED_EDGE('',*,*,#109,.T.);
#64=ORIENTED_EDGE('',*,*,#110,.T.);
#65=ORIENTED_EDGE('',*,*,#106,.F.);
#66=ORIENTED_EDGE('',*,*,#111,.F.);
#67=ORIENTED_EDGE('',*,*,#112,.T.);
#68=ORIENTED_EDGE('',*,*,#113,.T.);
#69=ORIENTED_EDGE('',*,*,#109,.F.);
#70=ORIENTED_EDGE('',*,*,#114,.F.);
#71=ORIENTED_EDGE('',*,*,#115,.T.);
#72=ORIENTED_EDGE('',*,*,#116,.F.);
#73=ORIENTED_EDGE('',*,*,#117,.T.);
#74=ORIENTED_EDGE('',*,*,#118,.T.);
#75=ORIENTED_EDGE('',*,*,#114,.T.);
#76=ORIENTED_EDGE('',*,*,#108,.T.);
#77=ORIENTED_EDGE('',*,*,#103,.T.);
#78=ORIENTED_EDGE('',*,*,#104,.F.);
#79=ORIENTED_EDGE('',*,*,#110,.F.);
#80=ORIENTED_EDGE('',*,*,#119,.F.);
#81=ORIENTED_EDGE('',*,*,#120,.T.);
#82=ORIENTED_EDGE('',*,*,#116,.T.);
#83=ORIENTED_EDGE('',*,*,#112,.F.);
#84=ORIENTED_EDGE('',*,*,#121,.F.);
#85=ORIENTED_EDGE('',*,*,#122,.T.);
#86=ORIENTED_EDGE('',*,*,#119,.T.);
#87=ORIENTED_EDGE('',*,*,#111,.T.);
#88=ORIENTED_EDGE('',*,*,#105,.T.);
#89=ORIENTED_EDGE('',*,*,#101,.T.);
#90=ORIENTED_EDGE('',*,*,#107,.F.);
#91=ORIENTED_EDGE('',*,*,#113,.F.);
#92=ORIENTED_EDGE('',*,*,#118,.F.);
#93=ORIENTED_EDGE('',*,*,#123,.T.);
#94=ORIENTED_EDGE('',*,*,#121,.T.);
#95=ORIENTED_EDGE('',*,*,#115,.F.);
#96=ORIENTED_EDGE('',*,*,#123,.F.);
#97=ORIENTED_EDGE('',*,*,#117,.F.);
#98=ORIENTED_EDGE('',*,*,#120,.F.);
#99=ORIENTED_EDGE('',*,*,#122,.F.);
#100=EDGE_CURVE('',#124,#125,#140,.T.);
#101=EDGE_CURVE('',#126,#124,#36,.F.);
#102=EDGE_CURVE('',#127,#126,#141,.T.);
#103=EDGE_CURVE('',#125,#127,#37,.F.);
#104=EDGE_CURVE('',#128,#127,#38,.T.);
#105=EDGE_CURVE('',#129,#126,#39,.T.);
#106=EDGE_CURVE('',#129,#128,#22,.F.);
#107=EDGE_CURVE('',#130,#124,#40,.T.);
#108=EDGE_CURVE('',#131,#125,#41,.T.);
#109=EDGE_CURVE('',#131,#130,#23,.F.);
#110=EDGE_CURVE('',#132,#128,#42,.T.);
#111=EDGE_CURVE('',#133,#129,#43,.T.);
#112=EDGE_CURVE('',#133,#132,#24,.F.);
#113=EDGE_CURVE('',#134,#130,#44,.T.);
#114=EDGE_CURVE('',#135,#131,#45,.T.);
#115=EDGE_CURVE('',#135,#134,#25,.F.);
#116=EDGE_CURVE('',#136,#132,#46,.T.);
#117=EDGE_CURVE('',#136,#137,#47,.F.);
#118=EDGE_CURVE('',#137,#135,#48,.T.);
#119=EDGE_CURVE('',#138,#133,#49,.T.);
#120=EDGE_CURVE('',#138,#136,#142,.T.);
#121=EDGE_CURVE('',#139,#134,#50,.T.);
#122=EDGE_CURVE('',#139,#138,#51,.F.);
#123=EDGE_CURVE('',#137,#139,#143,.T.);
#124=VERTEX_POINT('',#279);
#125=VERTEX_POINT('',#280);
#126=VERTEX_POINT('',#282);
#127=VERTEX_POINT('',#288);
#128=VERTEX_POINT('',#292);
#129=VERTEX_POINT('',#294);
#130=VERTEX_POINT('',#298);
#131=VERTEX_POINT('',#300);
#132=VERTEX_POINT('',#304);
#133=VERTEX_POINT('',#306);
#134=VERTEX_POINT('',#310);
#135=VERTEX_POINT('',#312);
#136=VERTEX_POINT('',#316);
#137=VERTEX_POINT('',#318);
#138=VERTEX_POINT('',#322);
#139=VERTEX_POINT('',#330);
#140=B_SPLINE_CURVE_WITH_KNOTS('',3,(#275,#276,#277,#278),.UNSPECIFIED.,
 .F.,.F.,(4,4),(3.22832010283542E-7,0.00173368236147803),.UNSPECIFIED.);
#141=B_SPLINE_CURVE_WITH_KNOTS('',3,(#283,#284,#285,#286,#287),
 .UNSPECIFIED.,.F.,.F.,(4,1,4),(3.76880239106344E-7,0.000912574905881378,
0.00182477293152365),.UNSPECIFIED.);
#142=B_SPLINE_CURVE_WITH_KNOTS('',3,(#323,#324,#325,#326,#327),
 .UNSPECIFIED.,.F.,.F.,(4,1,4),(3.76880239086072E-7,0.000912574905881357,
0.00182477293152363),.UNSPECIFIED.);
#143=B_SPLINE_CURVE_WITH_KNOTS('',3,(#333,#334,#335,#336),.UNSPECIFIED.,
 .F.,.F.,(4,4),(3.22832010282378E-7,0.00173368236147803),.UNSPECIFIED.);
#144=EDGE_LOOP('',(#52,#53,#54,#55));
#145=EDGE_LOOP('',(#56,#57,#58,#59));
#146=EDGE_LOOP('',(#60,#61,#62,#63));
#147=EDGE_LOOP('',(#64,#65,#66,#67));
#148=EDGE_LOOP('',(#68,#69,#70,#71));
#149=EDGE_LOOP('',(#72,#73,#74,#75,#76,#77,#78,#79));
#150=EDGE_LOOP('',(#80,#81,#82,#83));
#151=EDGE_LOOP('',(#84,#85,#86,#87,#88,#89,#90,#91));
#152=EDGE_LOOP('',(#92,#93,#94,#95));
#153=EDGE_LOOP('',(#96,#97,#98,#99));
#154=FACE_BOUND('',#144,.T.);
#155=FACE_BOUND('',#145,.T.);
#156=FACE_BOUND('',#146,.T.);
#157=FACE_BOUND('',#147,.T.);
#158=FACE_BOUND('',#148,.T.);
#159=FACE_BOUND('',#149,.T.);
#160=FACE_BOUND('',#150,.T.);
#161=FACE_BOUND('',#151,.T.);
#162=FACE_BOUND('',#152,.T.);
#163=FACE_BOUND('',#153,.T.);
#164=SPHERICAL_SURFACE('',#189,2.25);
#165=SPHERICAL_SURFACE('',#214,2.25);
#166=ADVANCED_FACE('',(#154),#164,.T.);
#167=ADVANCED_FACE('',(#155),#30,.T.);
#168=ADVANCED_FACE('',(#156),#31,.F.);
#169=ADVANCED_FACE('',(#157),#32,.F.);
#170=ADVANCED_FACE('',(#158),#33,.T.);
#171=ADVANCED_FACE('',(#159),#20,.T.);
#172=ADVANCED_FACE('',(#160),#34,.T.);
#173=ADVANCED_FACE('',(#161),#21,.T.);
#174=ADVANCED_FACE('',(#162),#35,.F.);
#175=ADVANCED_FACE('',(#163),#165,.T.);
#176=CLOSED_SHELL('',(#166,#167,#168,#169,#170,#171,#172,#173,#174,#175));
#177=STYLED_ITEM('',(#178),#185);
#178=PRESENTATION_STYLE_ASSIGNMENT((#179));
#179=SURFACE_STYLE_USAGE(.BOTH.,#180);
#180=SURFACE_SIDE_STYLE('',(#181));
#181=SURFACE_STYLE_FILL_AREA(#182);
#182=FILL_AREA_STYLE('',(#183));
#183=FILL_AREA_STYLE_COLOUR('',#184);
#184=COLOUR_RGB('',0.645180702209473,0.678915679454803,0.699999988079071);
#185=MANIFOLD_SOLID_BREP('',#176);
#186=SHAPE_DEFINITION_REPRESENTATION(#344,#187);
#187=SHAPE_REPRESENTATION('520001000',(#188),#339);
#188=AXIS2_PLACEMENT_3D('',#273,#215,#216);
#189=AXIS2_PLACEMENT_3D('',#274,#217,#218);
#190=AXIS2_PLACEMENT_3D('',#281,#219,#220);
#191=AXIS2_PLACEMENT_3D('',#289,#221,#222);
#192=AXIS2_PLACEMENT_3D('',#290,#223,#224);
#193=AXIS2_PLACEMENT_3D('',#291,#225,#226);
#194=AXIS2_PLACEMENT_3D('',#293,#227,#228);
#195=AXIS2_PLACEMENT_3D('',#296,#230,#231);
#196=AXIS2_PLACEMENT_3D('',#297,#232,#233);
#197=AXIS2_PLACEMENT_3D('',#299,#234,#235);
#198=AXIS2_PLACEMENT_3D('',#302,#237,#238);
#199=AXIS2_PLACEMENT_3D('',#303,#239,#240);
#200=AXIS2_PLACEMENT_3D('',#305,#241,#242);
#201=AXIS2_PLACEMENT_3D('',#308,#244,#245);
#202=AXIS2_PLACEMENT_3D('',#309,#246,#247);
#203=AXIS2_PLACEMENT_3D('',#311,#248,#249);
#204=AXIS2_PLACEMENT_3D('',#314,#251,#252);
#205=AXIS2_PLACEMENT_3D('',#315,#253,#254);
#206=AXIS2_PLACEMENT_3D('',#317,#255,#256);
#207=AXIS2_PLACEMENT_3D('',#319,#257,#258);
#208=AXIS2_PLACEMENT_3D('',#320,#259,#260);
#209=AXIS2_PLACEMENT_3D('',#321,#261,#262);
#210=AXIS2_PLACEMENT_3D('',#328,#263,#264);
#211=AXIS2_PLACEMENT_3D('',#329,#265,#266);
#212=AXIS2_PLACEMENT_3D('',#331,#267,#268);
#213=AXIS2_PLACEMENT_3D('',#332,#269,#270);
#214=AXIS2_PLACEMENT_3D('',#337,#271,#272);
#215=DIRECTION('',(0.,0.,1.));
#216=DIRECTION('',(1.,0.,0.));
#217=DIRECTION('',(0.,1.,0.));
#218=DIRECTION('',(-1.,0.,0.));
#219=DIRECTION('',(0.,1.,0.));
#220=DIRECTION('',(0.,0.,1.));
#221=DIRECTION('',(0.,-1.,0.));
#222=DIRECTION('',(0.,0.,-1.));
#223=DIRECTION('',(0.,1.,0.));
#224=DIRECTION('',(0.,0.,1.));
#225=DIRECTION('',(0.,1.,0.));
#226=DIRECTION('',(-0.833839242025033,0.,-0.552007353627756));
#227=DIRECTION('',(0.,1.,0.));
#228=DIRECTION('',(-0.833839242025033,0.,-0.552007353627756));
#229=DIRECTION('',(-3.37995856304612E-17,1.,5.10562416925146E-17));
#230=DIRECTION('',(0.,1.,0.));
#231=DIRECTION('',(0.,0.,1.));
#232=DIRECTION('',(0.,1.,0.));
#233=DIRECTION('',(-0.833839242025033,0.,-0.552007353627755));
#234=DIRECTION('',(0.,1.,0.));
#235=DIRECTION('',(-0.833839242025033,0.,-0.552007353627755));
#236=DIRECTION('',(3.37995856304612E-17,-1.,-5.10562416925146E-17));
#237=DIRECTION('',(0.,-1.,0.));
#238=DIRECTION('',(0.,0.,-1.));
#239=DIRECTION('',(0.,-1.,0.));
#240=DIRECTION('',(-0.833839242025033,0.,0.552007353627756));
#241=DIRECTION('',(0.,-1.,0.));
#242=DIRECTION('',(-0.833839242025033,0.,0.552007353627756));
#243=DIRECTION('',(-3.37995856304612E-17,1.,-5.10562416925146E-17));
#244=DIRECTION('',(0.,-1.,0.));
#245=DIRECTION('',(0.,0.,-1.));
#246=DIRECTION('',(0.,-1.,0.));
#247=DIRECTION('',(-0.833839242025033,0.,0.552007353627756));
#248=DIRECTION('',(0.,-1.,0.));
#249=DIRECTION('',(-0.833839242025033,0.,0.552007353627756));
#250=DIRECTION('',(3.37995856304612E-17,-1.,5.10562416925146E-17));
#251=DIRECTION('',(0.,-1.,0.));
#252=DIRECTION('',(0.,0.,-1.));
#253=DIRECTION('',(0.,1.,0.));
#254=DIRECTION('',(0.0792915554838942,0.,0.996851467987556));
#255=DIRECTION('',(0.,-1.,0.));
#256=DIRECTION('',(0.,0.,-1.));
#257=DIRECTION('',(0.,1.,0.));
#258=DIRECTION('',(0.0792915554838942,0.,0.996851467987556));
#259=DIRECTION('',(0.,1.,0.));
#260=DIRECTION('',(0.,0.,1.));
#261=DIRECTION('',(0.,1.,0.));
#262=DIRECTION('',(0.0792915554838942,0.,0.996851467987556));
#263=DIRECTION('',(0.,1.,0.));
#264=DIRECTION('',(0.,0.,1.));
#265=DIRECTION('',(0.,1.,0.));
#266=DIRECTION('',(0.0792915554838942,0.,0.996851467987556));
#267=DIRECTION('',(0.,1.,0.));
#268=DIRECTION('',(0.,0.,1.));
#269=DIRECTION('',(0.,1.,0.));
#270=DIRECTION('',(0.,0.,1.));
#271=DIRECTION('',(0.,-1.,0.));
#272=DIRECTION('',(1.,0.,0.));
#273=CARTESIAN_POINT('',(0.,0.,0.));
#274=CARTESIAN_POINT('',(7.75000000000001,0.,15.55));
#275=CARTESIAN_POINT('',(5.82300528166584,0.85,14.758361600532));
#276=CARTESIAN_POINT('',(5.62423309268034,0.307559328613249,14.6597792017949));
#277=CARTESIAN_POINT('',(5.62422717224447,-0.307543172000884,14.6597762655151));
#278=CARTESIAN_POINT('',(5.82300528166584,-0.85,14.758361600532));
#279=CARTESIAN_POINT('',(5.82300528166584,0.85,14.758361600532));
#280=CARTESIAN_POINT('',(5.82300528166584,-0.85,14.758361600532));
#281=CARTESIAN_POINT('',(7.75000000000001,0.85,15.55));
#282=CARTESIAN_POINT('',(6.19204503736409,0.85,16.9330315738978));
#283=CARTESIAN_POINT('',(6.19204503736409,-0.85,16.9330315738978));
#284=CARTESIAN_POINT('',(6.01234381120101,-0.605459343274594,16.8808947606559));
#285=CARTESIAN_POINT('',(5.80774852828198,-0.00116693384020897,16.8091261572939));
#286=CARTESIAN_POINT('',(6.01231995752313,0.605426882761222,16.8808878399755));
#287=CARTESIAN_POINT('',(6.19204503736409,0.85,16.9330315738978));
#288=CARTESIAN_POINT('',(6.19204503736409,-0.85,16.9330315738978));
#289=CARTESIAN_POINT('',(7.75000000000001,-0.85,15.55));
#290=CARTESIAN_POINT('',(8.23254226446584,0.,9.90000000000001));
#291=CARTESIAN_POINT('',(8.23254226446584,-0.85,9.90000000000001));
#292=CARTESIAN_POINT('',(2.12629006716384,-0.85,5.85761875175078));
#293=CARTESIAN_POINT('',(8.23254226446584,0.85,9.90000000000001));
#294=CARTESIAN_POINT('',(2.12629006716384,0.85,5.85761875175078));
#295=CARTESIAN_POINT('',(2.12629006716384,-0.85,5.85761875175078));
#296=CARTESIAN_POINT('',(8.23254226446584,0.,9.90000000000001));
#297=CARTESIAN_POINT('',(8.23254226446584,0.85,9.90000000000001));
#298=CARTESIAN_POINT('',(3.7105846270114,0.85,6.90643272364351));
#299=CARTESIAN_POINT('',(8.23254226446584,-0.85,9.90000000000001));
#300=CARTESIAN_POINT('',(3.7105846270114,-0.85,6.90643272364351));
#301=CARTESIAN_POINT('',(3.7105846270114,0.85,6.90643272364351));
#302=CARTESIAN_POINT('',(-1.4791141972894E-28,0.,4.45));
#303=CARTESIAN_POINT('',(-1.4791141972894E-28,-0.85,4.45));
#304=CARTESIAN_POINT('',(-2.12629006716383,-0.85,5.85761875175078));
#305=CARTESIAN_POINT('',(-1.4791141972894E-28,0.85,4.45));
#306=CARTESIAN_POINT('',(-2.12629006716383,0.85,5.85761875175078));
#307=CARTESIAN_POINT('',(-2.12629006716383,-0.85,5.85761875175078));
#308=CARTESIAN_POINT('',(-1.4791141972894E-28,0.,4.45));
#309=CARTESIAN_POINT('',(-1.4791141972894E-28,0.85,4.45));
#310=CARTESIAN_POINT('',(-3.7105846270114,0.85,6.90643272364352));
#311=CARTESIAN_POINT('',(-1.4791141972894E-28,-0.85,4.45));
#312=CARTESIAN_POINT('',(-3.7105846270114,-0.85,6.90643272364352));
#313=CARTESIAN_POINT('',(-3.7105846270114,0.85,6.90643272364352));
#314=CARTESIAN_POINT('',(-7.8025396490513,-0.85,15.3059822108236));
#315=CARTESIAN_POINT('',(-8.23254226446584,-0.85,9.90000000000001));
#316=CARTESIAN_POINT('',(-6.19204503736409,-0.85,16.9330315738978));
#317=CARTESIAN_POINT('',(-7.75000000000001,-0.85,15.55));
#318=CARTESIAN_POINT('',(-5.82300528166584,-0.85,14.758361600532));
#319=CARTESIAN_POINT('',(-8.23254226446584,-0.85,9.90000000000001));
#320=CARTESIAN_POINT('',(-8.23254226446584,0.,9.90000000000001));
#321=CARTESIAN_POINT('',(-8.23254226446584,0.85,9.90000000000001));
#322=CARTESIAN_POINT('',(-6.19204503736409,0.85,16.9330315738977));
#323=CARTESIAN_POINT('',(-6.19204503736409,0.85,16.9330315738977));
#324=CARTESIAN_POINT('',(-6.01234381120101,0.605459343274594,16.8808947606559));
#325=CARTESIAN_POINT('',(-5.80774852828198,0.00116693384020968,16.8091261572939));
#326=CARTESIAN_POINT('',(-6.01231995752313,-0.605426882761221,16.8808878399755));
#327=CARTESIAN_POINT('',(-6.19204503736409,-0.85,16.9330315738977));
#328=CARTESIAN_POINT('',(-7.6518856936319,0.85,17.2));
#329=CARTESIAN_POINT('',(-8.23254226446584,0.85,9.90000000000001));
#330=CARTESIAN_POINT('',(-5.82300528166584,0.85,14.758361600532));
#331=CARTESIAN_POINT('',(-7.75000000000001,0.85,15.55));
#332=CARTESIAN_POINT('',(-8.23254226446584,0.,9.90000000000001));
#333=CARTESIAN_POINT('',(-5.82300528166584,-0.85,14.758361600532));
#334=CARTESIAN_POINT('',(-5.62423309268034,-0.307559328613249,14.6597792017949));
#335=CARTESIAN_POINT('',(-5.62422717224447,0.307543172000884,14.6597762655151));
#336=CARTESIAN_POINT('',(-5.82300528166584,0.85,14.758361600532));
#337=CARTESIAN_POINT('',(-7.75000000000001,0.,15.55));
#338=MECHANICAL_DESIGN_GEOMETRIC_PRESENTATION_REPRESENTATION('',(#177),
#339);
#339=(
GEOMETRIC_REPRESENTATION_CONTEXT(3)
GLOBAL_UNCERTAINTY_ASSIGNED_CONTEXT((#340))
GLOBAL_UNIT_ASSIGNED_CONTEXT((#343,#342,#341))
REPRESENTATION_CONTEXT('520001000','TOP_LEVEL_ASSEMBLY_PART')
);
#340=UNCERTAINTY_MEASURE_WITH_UNIT(LENGTH_MEASURE(0.005),#343,
'DISTANCE_ACCURACY_VALUE','Maximum Tolerance applied to model');
#341=(
NAMED_UNIT(*)
SI_UNIT($,.STERADIAN.)
SOLID_ANGLE_UNIT()
);
#342=(
NAMED_UNIT(*)
PLANE_ANGLE_UNIT()
SI_UNIT($,.RADIAN.)
);
#343=(
LENGTH_UNIT()
NAMED_UNIT(*)
SI_UNIT(.MILLI.,.METRE.)
);
#344=PRODUCT_DEFINITION_SHAPE('','',#345);
#345=PRODUCT_DEFINITION('','',#347,#346);
#346=PRODUCT_DEFINITION_CONTEXT('',#353,'design');
#347=PRODUCT_DEFINITION_FORMATION_WITH_SPECIFIED_SOURCE('','',#349,
 .NOT_KNOWN.);
#348=PRODUCT_RELATED_PRODUCT_CATEGORY('','',(#349));
#349=PRODUCT('520001000','520001000','520001000',(#351));
#350=PRODUCT_CATEGORY('','');
#351=PRODUCT_CONTEXT('',#353,'mechanical');
#352=APPLICATION_PROTOCOL_DEFINITION('international standard',
'automotive_design',2010,#353);
#353=APPLICATION_CONTEXT(
'core data for automotive mechanical design processes');
ENDSEC;
END-ISO-10303-21;
