ISO-10303-21;
HEADER;
/* Generated by software containing ST-Developer
 * from STEP Tools, Inc. (www.steptools.com) 
 */
/* OPTION: strings as raw bytes, not using required /X/ escapes */

FILE_DESCRIPTION(
/* description */ ('Unknown'),
/* implementation_level */ '2;1');

FILE_NAME(
/* name */ '500918000',
/* time_stamp */ '2019-01-04T13:58:45+01:00',
/* author */ ('Unknown'),
/* organization */ ('Unknown'),
/* preprocessor_version */ 'ST-DEVELOPER v16.7',
/* originating_system */ 'DEX',
/* authorisation */ $);

FILE_SCHEMA (('AUTOMOTIVE_DESIGN {1 0 10303 214 3 1 1}'));
ENDSEC;

DATA;
#10=PROPERTY_DEFINITION_REPRESENTATION(#14,#12);
#11=PROPERTY_DEFINITION_REPRESENTATION(#15,#13);
#12=REPRESENTATION('',(#16),#563);
#13=REPRESENTATION('',(#17),#563);
#14=PROPERTY_DEFINITION('pmi validation property','',#568);
#15=PROPERTY_DEFINITION('pmi validation property','',#568);
#16=VALUE_REPRESENTATION_ITEM('number of annotations',COUNT_MEASURE(0.));
#17=VALUE_REPRESENTATION_ITEM('number of views',COUNT_MEASURE(0.));
#18=SHAPE_REPRESENTATION_RELATIONSHIP('','',#321,#19);
#19=ADVANCED_BREP_SHAPE_REPRESENTATION('',(#319),#563);
#20=DEGENERATE_TOROIDAL_SURFACE('',#356,0.1,1.5,.T.);
#21=DEGENERATE_TOROIDAL_SURFACE('',#366,0.1,1.5,.T.);
#22=TOROIDAL_SURFACE('',#352,12.,1.5);
#23=TOROIDAL_SURFACE('',#354,4.95,1.5);
#24=TOROIDAL_SURFACE('',#362,12.,1.5);
#25=TOROIDAL_SURFACE('',#364,4.95,1.5);
#26=CYLINDRICAL_SURFACE('',#326,12.);
#27=CYLINDRICAL_SURFACE('',#329,0.1);
#28=CYLINDRICAL_SURFACE('',#338,1.6);
#29=CYLINDRICAL_SURFACE('',#341,10.5);
#30=CYLINDRICAL_SURFACE('',#347,2.7);
#31=CYLINDRICAL_SURFACE('',#348,2.7);
#32=CYLINDRICAL_SURFACE('',#349,1.5);
#33=CYLINDRICAL_SURFACE('',#358,1.5);
#34=CYLINDRICAL_SURFACE('',#360,1.5);
#35=CYLINDRICAL_SURFACE('',#368,1.5);
#36=LINE('',#481,#50);
#37=LINE('',#486,#51);
#38=LINE('',#488,#52);
#39=LINE('',#492,#53);
#40=LINE('',#498,#54);
#41=LINE('',#507,#55);
#42=LINE('',#508,#56);
#43=LINE('',#512,#57);
#44=LINE('',#515,#58);
#45=LINE('',#519,#59);
#46=LINE('',#521,#60);
#47=LINE('',#527,#61);
#48=LINE('',#538,#62);
#49=LINE('',#539,#63);
#50=VECTOR('',#375,1000.);
#51=VECTOR('',#378,1000.);
#52=VECTOR('',#379,1000.);
#53=VECTOR('',#384,1000.);
#54=VECTOR('',#391,1000.);
#55=VECTOR('',#400,1000.);
#56=VECTOR('',#401,1000.);
#57=VECTOR('',#406,1000.);
#58=VECTOR('',#407,1000.);
#59=VECTOR('',#410,1000.);
#60=VECTOR('',#413,1000.);
#61=VECTOR('',#420,1000.);
#62=VECTOR('',#431,1000.);
#63=VECTOR('',#432,1000.);
#64=ORIENTED_EDGE('',*,*,#144,.T.);
#65=ORIENTED_EDGE('',*,*,#145,.F.);
#66=ORIENTED_EDGE('',*,*,#146,.T.);
#67=ORIENTED_EDGE('',*,*,#147,.T.);
#68=ORIENTED_EDGE('',*,*,#148,.F.);
#69=ORIENTED_EDGE('',*,*,#149,.T.);
#70=ORIENTED_EDGE('',*,*,#150,.F.);
#71=ORIENTED_EDGE('',*,*,#151,.F.);
#72=ORIENTED_EDGE('',*,*,#148,.T.);
#73=ORIENTED_EDGE('',*,*,#152,.T.);
#74=ORIENTED_EDGE('',*,*,#153,.F.);
#75=ORIENTED_EDGE('',*,*,#154,.F.);
#76=ORIENTED_EDGE('',*,*,#150,.T.);
#77=ORIENTED_EDGE('',*,*,#155,.F.);
#78=ORIENTED_EDGE('',*,*,#156,.T.);
#79=ORIENTED_EDGE('',*,*,#157,.F.);
#80=ORIENTED_EDGE('',*,*,#153,.T.);
#81=ORIENTED_EDGE('',*,*,#158,.T.);
#82=ORIENTED_EDGE('',*,*,#159,.T.);
#83=ORIENTED_EDGE('',*,*,#160,.F.);
#84=ORIENTED_EDGE('',*,*,#161,.T.);
#85=ORIENTED_EDGE('',*,*,#162,.T.);
#86=ORIENTED_EDGE('',*,*,#163,.T.);
#87=ORIENTED_EDGE('',*,*,#164,.F.);
#88=ORIENTED_EDGE('',*,*,#165,.T.);
#89=ORIENTED_EDGE('',*,*,#160,.T.);
#90=ORIENTED_EDGE('',*,*,#166,.T.);
#91=ORIENTED_EDGE('',*,*,#167,.F.);
#92=ORIENTED_EDGE('',*,*,#168,.T.);
#93=ORIENTED_EDGE('',*,*,#164,.T.);
#94=ORIENTED_EDGE('',*,*,#169,.T.);
#95=ORIENTED_EDGE('',*,*,#170,.F.);
#96=ORIENTED_EDGE('',*,*,#171,.T.);
#97=ORIENTED_EDGE('',*,*,#172,.T.);
#98=ORIENTED_EDGE('',*,*,#167,.T.);
#99=ORIENTED_EDGE('',*,*,#173,.T.);
#100=ORIENTED_EDGE('',*,*,#159,.F.);
#101=ORIENTED_EDGE('',*,*,#155,.T.);
#102=ORIENTED_EDGE('',*,*,#144,.F.);
#103=ORIENTED_EDGE('',*,*,#170,.T.);
#104=ORIENTED_EDGE('',*,*,#174,.F.);
#105=ORIENTED_EDGE('',*,*,#173,.F.);
#106=ORIENTED_EDGE('',*,*,#175,.F.);
#107=ORIENTED_EDGE('',*,*,#147,.F.);
#108=ORIENTED_EDGE('',*,*,#175,.T.);
#109=ORIENTED_EDGE('',*,*,#169,.F.);
#110=ORIENTED_EDGE('',*,*,#176,.F.);
#111=ORIENTED_EDGE('',*,*,#149,.F.);
#112=ORIENTED_EDGE('',*,*,#174,.T.);
#113=ORIENTED_EDGE('',*,*,#146,.F.);
#114=ORIENTED_EDGE('',*,*,#177,.F.);
#115=ORIENTED_EDGE('',*,*,#171,.F.);
#116=ORIENTED_EDGE('',*,*,#176,.T.);
#117=ORIENTED_EDGE('',*,*,#166,.F.);
#118=ORIENTED_EDGE('',*,*,#178,.F.);
#119=ORIENTED_EDGE('',*,*,#152,.F.);
#120=ORIENTED_EDGE('',*,*,#177,.T.);
#121=ORIENTED_EDGE('',*,*,#145,.T.);
#122=ORIENTED_EDGE('',*,*,#179,.F.);
#123=ORIENTED_EDGE('',*,*,#172,.F.);
#124=ORIENTED_EDGE('',*,*,#178,.T.);
#125=ORIENTED_EDGE('',*,*,#163,.F.);
#126=ORIENTED_EDGE('',*,*,#180,.F.);
#127=ORIENTED_EDGE('',*,*,#158,.F.);
#128=ORIENTED_EDGE('',*,*,#179,.T.);
#129=ORIENTED_EDGE('',*,*,#151,.T.);
#130=ORIENTED_EDGE('',*,*,#181,.F.);
#131=ORIENTED_EDGE('',*,*,#168,.F.);
#132=ORIENTED_EDGE('',*,*,#180,.T.);
#133=ORIENTED_EDGE('',*,*,#162,.F.);
#134=ORIENTED_EDGE('',*,*,#182,.F.);
#135=ORIENTED_EDGE('',*,*,#156,.F.);
#136=ORIENTED_EDGE('',*,*,#181,.T.);
#137=ORIENTED_EDGE('',*,*,#154,.T.);
#138=ORIENTED_EDGE('',*,*,#183,.F.);
#139=ORIENTED_EDGE('',*,*,#165,.F.);
#140=ORIENTED_EDGE('',*,*,#182,.T.);
#141=ORIENTED_EDGE('',*,*,#161,.F.);
#142=ORIENTED_EDGE('',*,*,#183,.T.);
#143=ORIENTED_EDGE('',*,*,#157,.T.);
#144=EDGE_CURVE('',#184,#184,#208,.T.);
#145=EDGE_CURVE('',#185,#186,#36,.T.);
#146=EDGE_CURVE('',#185,#187,#209,.F.);
#147=EDGE_CURVE('',#187,#188,#37,.T.);
#148=EDGE_CURVE('',#186,#188,#38,.T.);
#149=EDGE_CURVE('',#188,#189,#210,.T.);
#150=EDGE_CURVE('',#190,#189,#39,.T.);
#151=EDGE_CURVE('',#186,#190,#211,.T.);
#152=EDGE_CURVE('',#189,#191,#212,.T.);
#153=EDGE_CURVE('',#192,#191,#40,.T.);
#154=EDGE_CURVE('',#190,#192,#213,.T.);
#155=EDGE_CURVE('',#193,#193,#214,.T.);
#156=EDGE_CURVE('',#194,#195,#215,.F.);
#157=EDGE_CURVE('',#192,#195,#41,.T.);
#158=EDGE_CURVE('',#191,#194,#42,.T.);
#159=EDGE_CURVE('',#196,#196,#216,.T.);
#160=EDGE_CURVE('',#197,#198,#43,.T.);
#161=EDGE_CURVE('',#197,#199,#44,.F.);
#162=EDGE_CURVE('',#199,#200,#217,.F.);
#163=EDGE_CURVE('',#200,#198,#45,.T.);
#164=EDGE_CURVE('',#201,#202,#46,.T.);
#165=EDGE_CURVE('',#201,#197,#218,.F.);
#166=EDGE_CURVE('',#198,#202,#219,.T.);
#167=EDGE_CURVE('',#203,#204,#47,.T.);
#168=EDGE_CURVE('',#203,#201,#220,.T.);
#169=EDGE_CURVE('',#202,#204,#221,.F.);
#170=EDGE_CURVE('',#205,#205,#222,.T.);
#171=EDGE_CURVE('',#206,#207,#223,.F.);
#172=EDGE_CURVE('',#207,#203,#48,.F.);
#173=EDGE_CURVE('',#204,#206,#49,.T.);
#174=EDGE_CURVE('',#206,#187,#224,.T.);
#175=EDGE_CURVE('',#188,#204,#225,.T.);
#176=EDGE_CURVE('',#189,#202,#226,.T.);
#177=EDGE_CURVE('',#207,#185,#227,.T.);
#178=EDGE_CURVE('',#191,#198,#228,.T.);
#179=EDGE_CURVE('',#203,#186,#229,.T.);
#180=EDGE_CURVE('',#194,#200,#230,.T.);
#181=EDGE_CURVE('',#201,#190,#231,.T.);
#182=EDGE_CURVE('',#195,#199,#232,.T.);
#183=EDGE_CURVE('',#197,#192,#233,.T.);
#184=VERTEX_POINT('',#480);
#185=VERTEX_POINT('',#482);
#186=VERTEX_POINT('',#483);
#187=VERTEX_POINT('',#485);
#188=VERTEX_POINT('',#487);
#189=VERTEX_POINT('',#491);
#190=VERTEX_POINT('',#493);
#191=VERTEX_POINT('',#497);
#192=VERTEX_POINT('',#499);
#193=VERTEX_POINT('',#503);
#194=VERTEX_POINT('',#505);
#195=VERTEX_POINT('',#506);
#196=VERTEX_POINT('',#511);
#197=VERTEX_POINT('',#513);
#198=VERTEX_POINT('',#514);
#199=VERTEX_POINT('',#516);
#200=VERTEX_POINT('',#518);
#201=VERTEX_POINT('',#522);
#202=VERTEX_POINT('',#523);
#203=VERTEX_POINT('',#528);
#204=VERTEX_POINT('',#529);
#205=VERTEX_POINT('',#534);
#206=VERTEX_POINT('',#536);
#207=VERTEX_POINT('',#537);
#208=CIRCLE('',#324,2.7);
#209=CIRCLE('',#325,6.45);
#210=CIRCLE('',#327,12.);
#211=CIRCLE('',#328,12.);
#212=CIRCLE('',#330,0.1);
#213=CIRCLE('',#331,0.1);
#214=CIRCLE('',#333,2.7);
#215=CIRCLE('',#334,6.45);
#216=CIRCLE('',#336,2.7);
#217=CIRCLE('',#337,4.95);
#218=CIRCLE('',#339,1.6);
#219=CIRCLE('',#340,1.6);
#220=CIRCLE('',#342,10.5);
#221=CIRCLE('',#343,10.5);
#222=CIRCLE('',#345,2.7);
#223=CIRCLE('',#346,4.95);
#224=CIRCLE('',#350,1.5);
#225=CIRCLE('',#351,1.5);
#226=CIRCLE('',#353,1.5);
#227=CIRCLE('',#355,1.5);
#228=CIRCLE('',#357,1.5);
#229=CIRCLE('',#359,1.5);
#230=CIRCLE('',#361,1.5);
#231=CIRCLE('',#363,1.5);
#232=CIRCLE('',#365,1.5);
#233=CIRCLE('',#367,1.5);
#234=EDGE_LOOP('',(#64));
#235=EDGE_LOOP('',(#65,#66,#67,#68));
#236=EDGE_LOOP('',(#69,#70,#71,#72));
#237=EDGE_LOOP('',(#73,#74,#75,#76));
#238=EDGE_LOOP('',(#77));
#239=EDGE_LOOP('',(#78,#79,#80,#81));
#240=EDGE_LOOP('',(#82));
#241=EDGE_LOOP('',(#83,#84,#85,#86));
#242=EDGE_LOOP('',(#87,#88,#89,#90));
#243=EDGE_LOOP('',(#91,#92,#93,#94));
#244=EDGE_LOOP('',(#95));
#245=EDGE_LOOP('',(#96,#97,#98,#99));
#246=EDGE_LOOP('',(#100));
#247=EDGE_LOOP('',(#101));
#248=EDGE_LOOP('',(#102));
#249=EDGE_LOOP('',(#103));
#250=EDGE_LOOP('',(#104,#105,#106,#107));
#251=EDGE_LOOP('',(#108,#109,#110,#111));
#252=EDGE_LOOP('',(#112,#113,#114,#115));
#253=EDGE_LOOP('',(#116,#117,#118,#119));
#254=EDGE_LOOP('',(#120,#121,#122,#123));
#255=EDGE_LOOP('',(#124,#125,#126,#127));
#256=EDGE_LOOP('',(#128,#129,#130,#131));
#257=EDGE_LOOP('',(#132,#133,#134,#135));
#258=EDGE_LOOP('',(#136,#137,#138,#139));
#259=EDGE_LOOP('',(#140,#141,#142,#143));
#260=FACE_BOUND('',#234,.T.);
#261=FACE_BOUND('',#235,.T.);
#262=FACE_BOUND('',#236,.T.);
#263=FACE_BOUND('',#237,.T.);
#264=FACE_BOUND('',#238,.T.);
#265=FACE_BOUND('',#239,.T.);
#266=FACE_BOUND('',#240,.T.);
#267=FACE_BOUND('',#241,.T.);
#268=FACE_BOUND('',#242,.T.);
#269=FACE_BOUND('',#243,.T.);
#270=FACE_BOUND('',#244,.T.);
#271=FACE_BOUND('',#245,.T.);
#272=FACE_BOUND('',#246,.T.);
#273=FACE_BOUND('',#247,.T.);
#274=FACE_BOUND('',#248,.T.);
#275=FACE_BOUND('',#249,.T.);
#276=FACE_BOUND('',#250,.T.);
#277=FACE_BOUND('',#251,.T.);
#278=FACE_BOUND('',#252,.T.);
#279=FACE_BOUND('',#253,.T.);
#280=FACE_BOUND('',#254,.T.);
#281=FACE_BOUND('',#255,.T.);
#282=FACE_BOUND('',#256,.T.);
#283=FACE_BOUND('',#257,.T.);
#284=FACE_BOUND('',#258,.T.);
#285=FACE_BOUND('',#259,.T.);
#286=PLANE('',#323);
#287=PLANE('',#332);
#288=PLANE('',#335);
#289=PLANE('',#344);
#290=ADVANCED_FACE('',(#260,#261),#286,.F.);
#291=ADVANCED_FACE('',(#262),#26,.T.);
#292=ADVANCED_FACE('',(#263),#27,.F.);
#293=ADVANCED_FACE('',(#264,#265),#287,.F.);
#294=ADVANCED_FACE('',(#266,#267),#288,.F.);
#295=ADVANCED_FACE('',(#268),#28,.T.);
#296=ADVANCED_FACE('',(#269),#29,.F.);
#297=ADVANCED_FACE('',(#270,#271),#289,.F.);
#298=ADVANCED_FACE('',(#272,#273),#30,.F.);
#299=ADVANCED_FACE('',(#274,#275),#31,.F.);
#300=ADVANCED_FACE('',(#276),#32,.T.);
#301=ADVANCED_FACE('',(#277),#22,.T.);
#302=ADVANCED_FACE('',(#278),#23,.T.);
#303=ADVANCED_FACE('',(#279),#20,.T.);
#304=ADVANCED_FACE('',(#280),#33,.T.);
#305=ADVANCED_FACE('',(#281),#34,.T.);
#306=ADVANCED_FACE('',(#282),#24,.T.);
#307=ADVANCED_FACE('',(#283),#25,.T.);
#308=ADVANCED_FACE('',(#284),#21,.T.);
#309=ADVANCED_FACE('',(#285),#35,.T.);
#310=CLOSED_SHELL('',(#290,#291,#292,#293,#294,#295,#296,#297,#298,#299,
#300,#301,#302,#303,#304,#305,#306,#307,#308,#309));
#311=STYLED_ITEM('',(#312),#319);
#312=PRESENTATION_STYLE_ASSIGNMENT((#313));
#313=SURFACE_STYLE_USAGE(.BOTH.,#314);
#314=SURFACE_SIDE_STYLE('',(#315));
#315=SURFACE_STYLE_FILL_AREA(#316);
#316=FILL_AREA_STYLE('',(#317));
#317=FILL_AREA_STYLE_COLOUR('',#318);
#318=COLOUR_RGB('',0.645180702209473,0.678915679454803,0.699999988079071);
#319=MANIFOLD_SOLID_BREP('',#310);
#320=SHAPE_DEFINITION_REPRESENTATION(#568,#321);
#321=SHAPE_REPRESENTATION('500918000',(#322),#563);
#322=AXIS2_PLACEMENT_3D('',#477,#369,#370);
#323=AXIS2_PLACEMENT_3D('',#478,#371,#372);
#324=AXIS2_PLACEMENT_3D('',#479,#373,#374);
#325=AXIS2_PLACEMENT_3D('',#484,#376,#377);
#326=AXIS2_PLACEMENT_3D('',#489,#380,#381);
#327=AXIS2_PLACEMENT_3D('',#490,#382,#383);
#328=AXIS2_PLACEMENT_3D('',#494,#385,#386);
#329=AXIS2_PLACEMENT_3D('',#495,#387,#388);
#330=AXIS2_PLACEMENT_3D('',#496,#389,#390);
#331=AXIS2_PLACEMENT_3D('',#500,#392,#393);
#332=AXIS2_PLACEMENT_3D('',#501,#394,#395);
#333=AXIS2_PLACEMENT_3D('',#502,#396,#397);
#334=AXIS2_PLACEMENT_3D('',#504,#398,#399);
#335=AXIS2_PLACEMENT_3D('',#509,#402,#403);
#336=AXIS2_PLACEMENT_3D('',#510,#404,#405);
#337=AXIS2_PLACEMENT_3D('',#517,#408,#409);
#338=AXIS2_PLACEMENT_3D('',#520,#411,#412);
#339=AXIS2_PLACEMENT_3D('',#524,#414,#415);
#340=AXIS2_PLACEMENT_3D('',#525,#416,#417);
#341=AXIS2_PLACEMENT_3D('',#526,#418,#419);
#342=AXIS2_PLACEMENT_3D('',#530,#421,#422);
#343=AXIS2_PLACEMENT_3D('',#531,#423,#424);
#344=AXIS2_PLACEMENT_3D('',#532,#425,#426);
#345=AXIS2_PLACEMENT_3D('',#533,#427,#428);
#346=AXIS2_PLACEMENT_3D('',#535,#429,#430);
#347=AXIS2_PLACEMENT_3D('',#540,#433,#434);
#348=AXIS2_PLACEMENT_3D('',#541,#435,#436);
#349=AXIS2_PLACEMENT_3D('',#542,#437,#438);
#350=AXIS2_PLACEMENT_3D('',#543,#439,#440);
#351=AXIS2_PLACEMENT_3D('',#544,#441,#442);
#352=AXIS2_PLACEMENT_3D('',#545,#443,#444);
#353=AXIS2_PLACEMENT_3D('',#546,#445,#446);
#354=AXIS2_PLACEMENT_3D('',#547,#447,#448);
#355=AXIS2_PLACEMENT_3D('',#548,#449,#450);
#356=AXIS2_PLACEMENT_3D('',#549,#451,#452);
#357=AXIS2_PLACEMENT_3D('',#550,#453,#454);
#358=AXIS2_PLACEMENT_3D('',#551,#455,#456);
#359=AXIS2_PLACEMENT_3D('',#552,#457,#458);
#360=AXIS2_PLACEMENT_3D('',#553,#459,#460);
#361=AXIS2_PLACEMENT_3D('',#554,#461,#462);
#362=AXIS2_PLACEMENT_3D('',#555,#463,#464);
#363=AXIS2_PLACEMENT_3D('',#556,#465,#466);
#364=AXIS2_PLACEMENT_3D('',#557,#467,#468);
#365=AXIS2_PLACEMENT_3D('',#558,#469,#470);
#366=AXIS2_PLACEMENT_3D('',#559,#471,#472);
#367=AXIS2_PLACEMENT_3D('',#560,#473,#474);
#368=AXIS2_PLACEMENT_3D('',#561,#475,#476);
#369=DIRECTION('',(0.,0.,1.));
#370=DIRECTION('',(1.,0.,0.));
#371=DIRECTION('',(0.,0.,1.));
#372=DIRECTION('',(1.,0.,0.));
#373=DIRECTION('',(0.,0.,1.));
#374=DIRECTION('',(1.,0.,0.));
#375=DIRECTION('',(1.,0.,0.));
#376=DIRECTION('',(0.,0.,1.));
#377=DIRECTION('',(1.,0.,0.));
#378=DIRECTION('',(1.,0.,0.));
#379=DIRECTION('',(0.,1.,0.));
#380=DIRECTION('',(0.,1.,0.));
#381=DIRECTION('',(0.,0.,1.));
#382=DIRECTION('',(0.,-1.,0.));
#383=DIRECTION('',(0.,0.,-1.));
#384=DIRECTION('',(0.,1.,0.));
#385=DIRECTION('',(0.,-1.,0.));
#386=DIRECTION('',(0.,0.,-1.));
#387=DIRECTION('',(0.,1.,0.));
#388=DIRECTION('',(0.,0.,1.));
#389=DIRECTION('',(0.,1.,0.));
#390=DIRECTION('',(-1.,0.,0.));
#391=DIRECTION('',(0.,1.,0.));
#392=DIRECTION('',(0.,1.,0.));
#393=DIRECTION('',(-1.,0.,0.));
#394=DIRECTION('',(-0.235198009458132,0.,-0.971947476125604));
#395=DIRECTION('',(-0.971947476125605,0.,0.235198009458132));
#396=DIRECTION('',(0.235198009458132,0.,0.971947476125605));
#397=DIRECTION('',(0.,1.,0.));
#398=DIRECTION('',(-0.235198009458132,0.,-0.971947476125604));
#399=DIRECTION('',(-0.971947476125605,0.,0.235198009458132));
#400=DIRECTION('',(-0.971947476125605,0.,0.235198009458132));
#401=DIRECTION('',(-0.971947476125605,0.,0.235198009458132));
#402=DIRECTION('',(0.235198009458132,0.,0.971947476125605));
#403=DIRECTION('',(0.971947476125605,0.,-0.235198009458132));
#404=DIRECTION('',(0.235198009458132,0.,0.971947476125605));
#405=DIRECTION('',(0.971947476125605,0.,-0.235198009458132));
#406=DIRECTION('',(0.,1.,0.));
#407=DIRECTION('',(0.971947476125605,0.,-0.235198009458132));
#408=DIRECTION('',(0.235198009458132,0.,0.971947476125605));
#409=DIRECTION('',(0.971947476125605,0.,-0.235198009458132));
#410=DIRECTION('',(0.971947476125605,0.,-0.235198009458132));
#411=DIRECTION('',(0.,1.,0.));
#412=DIRECTION('',(0.,0.,1.));
#413=DIRECTION('',(0.,1.,0.));
#414=DIRECTION('',(0.,-1.,0.));
#415=DIRECTION('',(0.,0.,-1.));
#416=DIRECTION('',(0.,-1.,0.));
#417=DIRECTION('',(0.,0.,-1.));
#418=DIRECTION('',(0.,1.,0.));
#419=DIRECTION('',(0.,0.,1.));
#420=DIRECTION('',(0.,1.,0.));
#421=DIRECTION('',(0.,-1.,0.));
#422=DIRECTION('',(0.,0.,-1.));
#423=DIRECTION('',(0.,-1.,0.));
#424=DIRECTION('',(0.,0.,-1.));
#425=DIRECTION('',(-1.54886024640786E-17,0.,-1.));
#426=DIRECTION('',(-1.,0.,1.54886024640786E-17));
#427=DIRECTION('',(1.54886024640786E-17,0.,1.));
#428=DIRECTION('',(1.,0.,-1.54886024640786E-17));
#429=DIRECTION('',(-1.54886024640786E-17,0.,-1.));
#430=DIRECTION('',(-1.,0.,1.54886024640786E-17));
#431=DIRECTION('',(-1.,0.,1.54886024640786E-17));
#432=DIRECTION('',(-1.,0.,1.54886024640786E-17));
#433=DIRECTION('',(0.235198009458132,0.,0.971947476125605));
#434=DIRECTION('',(0.971947476125605,0.,-0.235198009458132));
#435=DIRECTION('',(1.54886024640786E-17,0.,1.));
#436=DIRECTION('',(1.,0.,-1.54886024640786E-17));
#437=DIRECTION('',(-1.,0.,1.54886024640786E-17));
#438=DIRECTION('',(1.54886024640786E-17,0.,1.));
#439=DIRECTION('',(-1.,0.,0.));
#440=DIRECTION('',(0.,0.,1.));
#441=DIRECTION('',(1.,0.,1.83697019872103E-16));
#442=DIRECTION('',(1.83697019872103E-16,0.,-1.));
#443=DIRECTION('',(0.,-1.,0.));
#444=DIRECTION('',(0.,0.,-1.));
#445=DIRECTION('',(0.221666666666665,0.,-0.975122499427067));
#446=DIRECTION('',(-0.975122499427067,0.,-0.221666666666665));
#447=DIRECTION('',(-1.54886024640786E-17,0.,-1.));
#448=DIRECTION('',(-1.,0.,1.54886024640786E-17));
#449=DIRECTION('',(1.,0.,0.));
#450=DIRECTION('',(0.,0.,-1.));
#451=DIRECTION('',(0.,-1.,0.));
#452=DIRECTION('',(0.,0.,-1.));
#453=DIRECTION('',(-0.971947476125604,0.,0.235198009458132));
#454=DIRECTION('',(0.235198009458132,0.,0.971947476125605));
#455=DIRECTION('',(1.,0.,-1.54886024640786E-17));
#456=DIRECTION('',(-1.54886024640786E-17,0.,-1.));
#457=DIRECTION('',(1.,1.99185622336181E-16,-1.54886024640787E-17));
#458=DIRECTION('',(-1.99185622336181E-16,1.,0.));
#459=DIRECTION('',(0.971947476125605,0.,-0.235198009458132));
#460=DIRECTION('',(-0.235198009458132,0.,-0.971947476125605));
#461=DIRECTION('',(-0.971947476125604,0.,0.235198009458132));
#462=DIRECTION('',(0.235198009458132,0.,0.971947476125605));
#463=DIRECTION('',(0.,-1.,0.));
#464=DIRECTION('',(0.,0.,-1.));
#465=DIRECTION('',(0.221666666666667,-2.25542385561242E-15,-0.975122499427066));
#466=DIRECTION('',(-0.975122499427066,0.,-0.221666666666667));
#467=DIRECTION('',(0.235198009458132,0.,0.971947476125605));
#468=DIRECTION('',(0.971947476125605,0.,-0.235198009458132));
#469=DIRECTION('',(0.971947476125604,0.,-0.235198009458132));
#470=DIRECTION('',(-0.235198009458132,0.,-0.971947476125605));
#471=DIRECTION('',(0.,-1.,0.));
#472=DIRECTION('',(0.,0.,-1.));
#473=DIRECTION('',(-0.971947476125606,-8.41228516452035E-15,0.235198009458124));
#474=DIRECTION('',(0.235198009458124,0.,0.971947476125606));
#475=DIRECTION('',(-0.971947476125605,0.,0.235198009458132));
#476=DIRECTION('',(0.235198009458132,0.,0.971947476125605));
#477=CARTESIAN_POINT('',(0.,0.,0.));
#478=CARTESIAN_POINT('',(-28.,-6.45,0.));
#479=CARTESIAN_POINT('',(-21.2,2.81668763803891E-16,0.));
#480=CARTESIAN_POINT('',(-18.5,2.81668763803891E-16,0.));
#481=CARTESIAN_POINT('',(-28.,-6.45,0.));
#482=CARTESIAN_POINT('',(-21.55,-6.45,0.));
#483=CARTESIAN_POINT('',(0.,-6.45,0.));
#484=CARTESIAN_POINT('',(-21.55,0.,0.));
#485=CARTESIAN_POINT('',(-21.55,6.45,0.));
#486=CARTESIAN_POINT('',(-28.,6.45,0.));
#487=CARTESIAN_POINT('',(0.,6.45,0.));
#488=CARTESIAN_POINT('',(0.,-6.45,0.));
#489=CARTESIAN_POINT('',(0.,-6.45,12.));
#490=CARTESIAN_POINT('',(0.,6.45,12.));
#491=CARTESIAN_POINT('',(-11.7014699931248,6.45,9.34000000000001));
#492=CARTESIAN_POINT('',(-11.7014699931248,-6.45,9.34000000000001));
#493=CARTESIAN_POINT('',(-11.7014699931248,-6.45,9.34000000000001));
#494=CARTESIAN_POINT('',(0.,-6.45,12.));
#495=CARTESIAN_POINT('',(-11.7989822430675,-6.45,9.31783333333334));
#496=CARTESIAN_POINT('',(-11.7989822430675,6.45,9.31783333333334));
#497=CARTESIAN_POINT('',(-11.8225020440133,6.45,9.22063858572077));
#498=CARTESIAN_POINT('',(-11.8225020440133,-6.45,9.22063858572077));
#499=CARTESIAN_POINT('',(-11.8225020440133,-6.45,9.22063858572077));
#500=CARTESIAN_POINT('',(-11.7989822430675,-6.45,9.31783333333334));
#501=CARTESIAN_POINT('',(-11.8225020440133,-6.45,9.22063858572078));
#502=CARTESIAN_POINT('',(-18.4622993364258,1.46721972644359E-15,10.8273788106207));
#503=CARTESIAN_POINT('',(-18.4622993364258,2.7,10.8273788106207));
#504=CARTESIAN_POINT('',(-21.3781417648027,0.,11.5329728389951));
#505=CARTESIAN_POINT('',(-21.3781417648027,6.45,11.5329728389951));
#506=CARTESIAN_POINT('',(-21.3781417648027,-6.45,11.5329728389951));
#507=CARTESIAN_POINT('',(-11.8225020440133,-6.45,9.22063858572078));
#508=CARTESIAN_POINT('',(-11.8225020440133,6.45,9.22063858572078));
#509=CARTESIAN_POINT('',(-12.1752990582005,-6.45,7.76271737153237));
#510=CARTESIAN_POINT('',(-18.815096350613,1.46721972644359E-15,9.36945759643225));
#511=CARTESIAN_POINT('',(-16.1908381650739,1.46721972644359E-15,8.73442297089529));
#512=CARTESIAN_POINT('',(-12.1752990582005,-6.45,7.76271737153237));
#513=CARTESIAN_POINT('',(-12.1752990582005,-4.95,7.76271737153237));
#514=CARTESIAN_POINT('',(-12.1752990582005,4.95000000000005,7.76271737153237));
#515=CARTESIAN_POINT('',(-21.7309387789899,-4.95,10.0750516248066));
#516=CARTESIAN_POINT('',(-21.7309387789899,-4.95,10.0750516248066));
#517=CARTESIAN_POINT('',(-21.7309387789899,0.,10.0750516248066));
#518=CARTESIAN_POINT('',(-21.7309387789899,4.95,10.0750516248066));
#519=CARTESIAN_POINT('',(-12.1752990582005,4.95,7.76271737153237));
#520=CARTESIAN_POINT('',(-11.7989822430675,-6.45,9.31783333333334));
#521=CARTESIAN_POINT('',(-10.2387862439842,-6.45,9.6725));
#522=CARTESIAN_POINT('',(-10.2387862439842,-4.95,9.6725));
#523=CARTESIAN_POINT('',(-10.2387862439842,4.95,9.6725));
#524=CARTESIAN_POINT('',(-11.7989822430675,-4.95,9.31783333333334));
#525=CARTESIAN_POINT('',(-11.7989822430675,4.95000000000005,9.31783333333334));
#526=CARTESIAN_POINT('',(0.,-6.45,12.));
#527=CARTESIAN_POINT('',(1.92881870865708E-15,-6.45,1.5));
#528=CARTESIAN_POINT('',(1.92881870865708E-15,-4.95,1.5));
#529=CARTESIAN_POINT('',(1.92881870865708E-15,4.95,1.5));
#530=CARTESIAN_POINT('',(0.,-4.95,12.));
#531=CARTESIAN_POINT('',(0.,4.95,12.));
#532=CARTESIAN_POINT('',(-28.,-6.45,1.5));
#533=CARTESIAN_POINT('',(-21.2,2.81668763803891E-16,1.5));
#534=CARTESIAN_POINT('',(-18.5,2.81668763803891E-16,1.5));
#535=CARTESIAN_POINT('',(-21.55,0.,1.5));
#536=CARTESIAN_POINT('',(-21.55,4.95,1.5));
#537=CARTESIAN_POINT('',(-21.55,-4.95,1.5));
#538=CARTESIAN_POINT('',(1.92881870865708E-15,-4.95,1.5));
#539=CARTESIAN_POINT('',(-28.,4.95,1.5));
#540=CARTESIAN_POINT('',(-29.8455185286395,1.46721972644359E-15,-36.2133728927909));
#541=CARTESIAN_POINT('',(-21.2,2.81668763803891E-16,-46.8984503884164));
#542=CARTESIAN_POINT('',(-28.,4.95,3.68628738645072E-15));
#543=CARTESIAN_POINT('',(-21.55,4.95,3.46944695195361E-15));
#544=CARTESIAN_POINT('',(2.20436423846524E-15,4.95,3.25260651745651E-15));
#545=CARTESIAN_POINT('',(0.,4.95,12.));
#546=CARTESIAN_POINT('',(-11.7014699931248,4.95,9.34));
#547=CARTESIAN_POINT('',(-21.55,0.,3.68628738645072E-15));
#548=CARTESIAN_POINT('',(-21.55,-4.95,3.46944695195361E-15));
#549=CARTESIAN_POINT('',(-11.7989822430675,4.95,9.31783333333334));
#550=CARTESIAN_POINT('',(-11.8225020440133,4.95,9.22063858572077));
#551=CARTESIAN_POINT('',(-1.85863229568944E-16,-4.95,3.46944695195361E-15));
#552=CARTESIAN_POINT('',(1.90558580496096E-15,-4.95,3.03576608295941E-15));
#553=CARTESIAN_POINT('',(-11.8225020440133,4.95,9.22063858572078));
#554=CARTESIAN_POINT('',(-21.3781417648027,4.95,11.5329728389951));
#555=CARTESIAN_POINT('',(0.,-4.95,12.));
#556=CARTESIAN_POINT('',(-11.7014699931248,-4.95,9.34));
#557=CARTESIAN_POINT('',(-21.3781417648027,0.,11.5329728389951));
#558=CARTESIAN_POINT('',(-21.3781417648027,-4.95,11.5329728389951));
#559=CARTESIAN_POINT('',(-11.7989822430675,-4.95,9.31783333333334));
#560=CARTESIAN_POINT('',(-11.8225020440133,-4.95,9.22063858572078));
#561=CARTESIAN_POINT('',(-1.28936072321987,-4.95,6.67176230089603));
#562=MECHANICAL_DESIGN_GEOMETRIC_PRESENTATION_REPRESENTATION('',(#311),
#563);
#563=(
GEOMETRIC_REPRESENTATION_CONTEXT(3)
GLOBAL_UNCERTAINTY_ASSIGNED_CONTEXT((#564))
GLOBAL_UNIT_ASSIGNED_CONTEXT((#567,#566,#565))
REPRESENTATION_CONTEXT('500918000','TOP_LEVEL_ASSEMBLY_PART')
);
#564=UNCERTAINTY_MEASURE_WITH_UNIT(LENGTH_MEASURE(0.005),#567,
'DISTANCE_ACCURACY_VALUE','Maximum Tolerance applied to model');
#565=(
NAMED_UNIT(*)
SI_UNIT($,.STERADIAN.)
SOLID_ANGLE_UNIT()
);
#566=(
NAMED_UNIT(*)
PLANE_ANGLE_UNIT()
SI_UNIT($,.RADIAN.)
);
#567=(
LENGTH_UNIT()
NAMED_UNIT(*)
SI_UNIT(.MILLI.,.METRE.)
);
#568=PRODUCT_DEFINITION_SHAPE('','',#569);
#569=PRODUCT_DEFINITION('','',#571,#570);
#570=PRODUCT_DEFINITION_CONTEXT('',#577,'design');
#571=PRODUCT_DEFINITION_FORMATION_WITH_SPECIFIED_SOURCE('','',#573,
 .NOT_KNOWN.);
#572=PRODUCT_RELATED_PRODUCT_CATEGORY('','',(#573));
#573=PRODUCT('500918000','500918000','500918000',(#575));
#574=PRODUCT_CATEGORY('','');
#575=PRODUCT_CONTEXT('',#577,'mechanical');
#576=APPLICATION_PROTOCOL_DEFINITION('international standard',
'automotive_design',2010,#577);
#577=APPLICATION_CONTEXT(
'core data for automotive mechanical design processes');
ENDSEC;
END-ISO-10303-21;
