ISO-10303-21;
HEADER;
FILE_DESCRIPTION( ( 'Unknown' ), '1' );
FILE_NAME( 'I:/User_Groups_Only/17_EMC_Product_&_Development/Article_Master/eiCan/Assembly/As_CHCL/Master_Data/01_CAD_drawing/1_Drawing/500910500/Released_Data/500910500.stp', 'Unknown', ( 'Unknown' ), ( 'Unknown' ), 'PSStep 17.0.49', 'Unknown', '  ' );
FILE_SCHEMA( ( 'AUTOMOTIVE_DESIGN { 1 0 10303 214 1 1 1 1 }' ) );
ENDSEC;
DATA;
#1 = MECHANICAL_DESIGN_GEOMETRIC_PRESENTATION_REPRESENTATION( ' ', ( #10, #11, #12, #13, #14, #15, #16, #17, #18, #19, #20, #21 ), #6 );
#2 = PRODUCT_DEFINITION_CONTEXT( '', #22, 'design' );
#3 = APPLICATION_PROTOCOL_DEFINITION( 'international standard', 'automotive_design', 2001, #22 );
#4 = PRODUCT_CATEGORY_RELATIONSHIP( 'NONE', 'NONE', #23, #24 );
#5 = SHAPE_DEFINITION_REPRESENTATION( #25, #26 );
#6 =  ( GEOMETRIC_REPRESENTATION_CONTEXT( 3 )GLOBAL_UNCERTAINTY_ASSIGNED_CONTEXT( ( #29 ) )GLOBAL_UNIT_ASSIGNED_CONTEXT( ( #31, #32, #33 ) )REPRESENTATION_CONTEXT( 'NONE', 'WORKSPACE' ) );
#10 = STYLED_ITEM( '', ( #35 ), #36 );
#11 = STYLED_ITEM( '', ( #37 ), #38 );
#12 = STYLED_ITEM( '', ( #39 ), #40 );
#13 = STYLED_ITEM( '', ( #41 ), #42 );
#14 = STYLED_ITEM( '', ( #43 ), #44 );
#15 = STYLED_ITEM( '', ( #45 ), #46 );
#16 = STYLED_ITEM( '', ( #47 ), #48 );
#17 = STYLED_ITEM( '', ( #49 ), #50 );
#18 = STYLED_ITEM( '', ( #51 ), #52 );
#19 = STYLED_ITEM( '', ( #53 ), #54 );
#20 = STYLED_ITEM( '', ( #55 ), #56 );
#21 = STYLED_ITEM( '', ( #57 ), #58 );
#22 = APPLICATION_CONTEXT( 'core data for automotive mechanical design processes' );
#23 = PRODUCT_CATEGORY( 'part', 'NONE' );
#24 = PRODUCT_RELATED_PRODUCT_CATEGORY( 'detail', ' ', ( #59 ) );
#25 = PRODUCT_DEFINITION_SHAPE( 'NONE', 'NONE', #60 );
#26 = ADVANCED_BREP_SHAPE_REPRESENTATION( '1', ( #61, #62 ), #6 );
#29 = UNCERTAINTY_MEASURE_WITH_UNIT( LENGTH_MEASURE( 0.00100000000000000 ), #31, '', '' );
#31 =  ( CONVERSION_BASED_UNIT( 'MILLIMETRE', #65 )LENGTH_UNIT(  )NAMED_UNIT( #68 ) );
#32 =  ( NAMED_UNIT( #70 )PLANE_ANGLE_UNIT(  )SI_UNIT( $, .RADIAN. ) );
#33 =  ( NAMED_UNIT( #70 )SI_UNIT( $, .STERADIAN. )SOLID_ANGLE_UNIT(  ) );
#35 = PRESENTATION_STYLE_ASSIGNMENT( ( #76 ) );
#36 = ADVANCED_FACE( '', ( #77 ), #78, .F. );
#37 = PRESENTATION_STYLE_ASSIGNMENT( ( #79 ) );
#38 = ADVANCED_FACE( '', ( #80 ), #81, .F. );
#39 = PRESENTATION_STYLE_ASSIGNMENT( ( #82 ) );
#40 = ADVANCED_FACE( '', ( #83 ), #84, .F. );
#41 = PRESENTATION_STYLE_ASSIGNMENT( ( #85 ) );
#42 = ADVANCED_FACE( '', ( #86 ), #87, .F. );
#43 = PRESENTATION_STYLE_ASSIGNMENT( ( #88 ) );
#44 = ADVANCED_FACE( '', ( #89 ), #90, .T. );
#45 = PRESENTATION_STYLE_ASSIGNMENT( ( #91 ) );
#46 = ADVANCED_FACE( '', ( #92 ), #93, .F. );
#47 = PRESENTATION_STYLE_ASSIGNMENT( ( #94 ) );
#48 = ADVANCED_FACE( '', ( #95 ), #96, .F. );
#49 = PRESENTATION_STYLE_ASSIGNMENT( ( #97 ) );
#50 = ADVANCED_FACE( '', ( #98 ), #99, .F. );
#51 = PRESENTATION_STYLE_ASSIGNMENT( ( #100 ) );
#52 = ADVANCED_FACE( '', ( #101 ), #102, .T. );
#53 = PRESENTATION_STYLE_ASSIGNMENT( ( #103 ) );
#54 = ADVANCED_FACE( '', ( #104 ), #105, .T. );
#55 = PRESENTATION_STYLE_ASSIGNMENT( ( #106 ) );
#56 = ADVANCED_FACE( '', ( #107 ), #108, .F. );
#57 = PRESENTATION_STYLE_ASSIGNMENT( ( #109 ) );
#58 = ADVANCED_FACE( '', ( #110 ), #111, .F. );
#59 = PRODUCT( '1', '1', 'PART-1-DESC', ( #112 ) );
#60 = PRODUCT_DEFINITION( 'NONE', 'NONE', #113, #2 );
#61 = MANIFOLD_SOLID_BREP( '1', #114 );
#62 = AXIS2_PLACEMENT_3D( '', #115, #116, #117 );
#65 = LENGTH_MEASURE_WITH_UNIT( LENGTH_MEASURE( 1.00000000000000 ), #118 );
#68 = DIMENSIONAL_EXPONENTS( 1.00000000000000, 0.000000000000000, 0.000000000000000, 0.000000000000000, 0.000000000000000, 0.000000000000000, 0.000000000000000 );
#70 = DIMENSIONAL_EXPONENTS( 0.000000000000000, 0.000000000000000, 0.000000000000000, 0.000000000000000, 0.000000000000000, 0.000000000000000, 0.000000000000000 );
#76 = SURFACE_STYLE_USAGE( .BOTH., #119 );
#77 = FACE_OUTER_BOUND( '', #120, .T. );
#78 = CYLINDRICAL_SURFACE( '', #121, 0.100000000000000 );
#79 = SURFACE_STYLE_USAGE( .BOTH., #122 );
#80 = FACE_OUTER_BOUND( '', #123, .T. );
#81 = CYLINDRICAL_SURFACE( '', #124, 1.67500000000000 );
#82 = SURFACE_STYLE_USAGE( .BOTH., #125 );
#83 = FACE_OUTER_BOUND( '', #126, .T. );
#84 = PLANE( '', #127 );
#85 = SURFACE_STYLE_USAGE( .BOTH., #128 );
#86 = FACE_OUTER_BOUND( '', #129, .T. );
#87 = PLANE( '', #130 );
#88 = SURFACE_STYLE_USAGE( .BOTH., #131 );
#89 = FACE_OUTER_BOUND( '', #132, .T. );
#90 = PLANE( '', #133 );
#91 = SURFACE_STYLE_USAGE( .BOTH., #134 );
#92 = FACE_OUTER_BOUND( '', #135, .T. );
#93 = PLANE( '', #136 );
#94 = SURFACE_STYLE_USAGE( .BOTH., #137 );
#95 = FACE_OUTER_BOUND( '', #138, .T. );
#96 = PLANE( '', #139 );
#97 = SURFACE_STYLE_USAGE( .BOTH., #140 );
#98 = FACE_OUTER_BOUND( '', #141, .T. );
#99 = PLANE( '', #142 );
#100 = SURFACE_STYLE_USAGE( .BOTH., #143 );
#101 = FACE_OUTER_BOUND( '', #144, .T. );
#102 = CYLINDRICAL_SURFACE( '', #145, 1.10000000000000 );
#103 = SURFACE_STYLE_USAGE( .BOTH., #146 );
#104 = FACE_OUTER_BOUND( '', #147, .T. );
#105 = CYLINDRICAL_SURFACE( '', #148, 2.67500000000000 );
#106 = SURFACE_STYLE_USAGE( .BOTH., #149 );
#107 = FACE_OUTER_BOUND( '', #150, .T. );
#108 = PLANE( '', #151 );
#109 = SURFACE_STYLE_USAGE( .BOTH., #152 );
#110 = FACE_OUTER_BOUND( '', #153, .T. );
#111 = PLANE( '', #154 );
#112 = PRODUCT_CONTEXT( '', #22, 'mechanical' );
#113 = PRODUCT_DEFINITION_FORMATION_WITH_SPECIFIED_SOURCE( ' ', 'NONE', #59, .NOT_KNOWN. );
#114 = CLOSED_SHELL( '', ( #58, #54, #46, #36, #50, #56, #48, #52, #38, #40, #42, #44 ) );
#115 = CARTESIAN_POINT( '', ( 0.000000000000000, 0.000000000000000, 0.000000000000000 ) );
#116 = DIRECTION( '', ( 0.000000000000000, 0.000000000000000, 1.00000000000000 ) );
#117 = DIRECTION( '', ( 1.00000000000000, 0.000000000000000, 0.000000000000000 ) );
#118 =  ( LENGTH_UNIT(  )NAMED_UNIT( #68 )SI_UNIT( .MILLI., .METRE. ) );
#119 = SURFACE_SIDE_STYLE( '', ( #156 ) );
#120 = EDGE_LOOP( '', ( #157, #158, #159, #160 ) );
#121 = AXIS2_PLACEMENT_3D( '', #161, #162, #163 );
#122 = SURFACE_SIDE_STYLE( '', ( #164 ) );
#123 = EDGE_LOOP( '', ( #165, #166, #167, #168 ) );
#124 = AXIS2_PLACEMENT_3D( '', #169, #170, #171 );
#125 = SURFACE_SIDE_STYLE( '', ( #172 ) );
#126 = EDGE_LOOP( '', ( #173, #174, #175, #176 ) );
#127 = AXIS2_PLACEMENT_3D( '', #177, #178, #179 );
#128 = SURFACE_SIDE_STYLE( '', ( #180 ) );
#129 = EDGE_LOOP( '', ( #181, #182, #183, #184, #185, #186, #187, #188, #189, #190 ) );
#130 = AXIS2_PLACEMENT_3D( '', #191, #192, #193 );
#131 = SURFACE_SIDE_STYLE( '', ( #194 ) );
#132 = EDGE_LOOP( '', ( #195, #196, #197, #198, #199, #200, #201, #202, #203, #204 ) );
#133 = AXIS2_PLACEMENT_3D( '', #205, #206, #207 );
#134 = SURFACE_SIDE_STYLE( '', ( #208 ) );
#135 = EDGE_LOOP( '', ( #209, #210, #211, #212 ) );
#136 = AXIS2_PLACEMENT_3D( '', #213, #214, #215 );
#137 = SURFACE_SIDE_STYLE( '', ( #216 ) );
#138 = EDGE_LOOP( '', ( #217, #218, #219, #220 ) );
#139 = AXIS2_PLACEMENT_3D( '', #221, #222, #223 );
#140 = SURFACE_SIDE_STYLE( '', ( #224 ) );
#141 = EDGE_LOOP( '', ( #225, #226, #227, #228 ) );
#142 = AXIS2_PLACEMENT_3D( '', #229, #230, #231 );
#143 = SURFACE_SIDE_STYLE( '', ( #232 ) );
#144 = EDGE_LOOP( '', ( #233, #234, #235, #236 ) );
#145 = AXIS2_PLACEMENT_3D( '', #237, #238, #239 );
#146 = SURFACE_SIDE_STYLE( '', ( #240 ) );
#147 = EDGE_LOOP( '', ( #241, #242, #243, #244 ) );
#148 = AXIS2_PLACEMENT_3D( '', #245, #246, #247 );
#149 = SURFACE_SIDE_STYLE( '', ( #248 ) );
#150 = EDGE_LOOP( '', ( #249, #250, #251, #252 ) );
#151 = AXIS2_PLACEMENT_3D( '', #253, #254, #255 );
#152 = SURFACE_SIDE_STYLE( '', ( #256 ) );
#153 = EDGE_LOOP( '', ( #257, #258, #259, #260 ) );
#154 = AXIS2_PLACEMENT_3D( '', #261, #262, #263 );
#156 = SURFACE_STYLE_FILL_AREA( #264 );
#157 = ORIENTED_EDGE( '', *, *, #265, .T. );
#158 = ORIENTED_EDGE( '', *, *, #266, .F. );
#159 = ORIENTED_EDGE( '', *, *, #267, .F. );
#160 = ORIENTED_EDGE( '', *, *, #268, .T. );
#161 = CARTESIAN_POINT( '', ( -2.49539313925271, -3.25000000000000, 3.88893495730641 ) );
#162 = DIRECTION( '', ( -0.000000000000000, -1.00000000000000, -0.000000000000000 ) );
#163 = DIRECTION( '', ( 0.000000000000000, 0.000000000000000, 1.00000000000000 ) );
#164 = SURFACE_STYLE_FILL_AREA( #269 );
#165 = ORIENTED_EDGE( '', *, *, #270, .T. );
#166 = ORIENTED_EDGE( '', *, *, #271, .F. );
#167 = ORIENTED_EDGE( '', *, *, #272, .F. );
#168 = ORIENTED_EDGE( '', *, *, #273, .T. );
#169 = CARTESIAN_POINT( '', ( 0.000000000000000, -3.25000000000000, 2.67500000000000 ) );
#170 = DIRECTION( '', ( -0.000000000000000, -1.00000000000000, -0.000000000000000 ) );
#171 = DIRECTION( '', ( 0.000000000000000, 0.000000000000000, 1.00000000000000 ) );
#172 = SURFACE_STYLE_FILL_AREA( #274 );
#173 = ORIENTED_EDGE( '', *, *, #275, .T. );
#174 = ORIENTED_EDGE( '', *, *, #276, .F. );
#175 = ORIENTED_EDGE( '', *, *, #277, .F. );
#176 = ORIENTED_EDGE( '', *, *, #271, .T. );
#177 = CARTESIAN_POINT( '', ( -9.80000000000000, -3.25000000000000, 1.00000000000000 ) );
#178 = DIRECTION( '', ( 0.000000000000000, 0.000000000000000, -1.00000000000000 ) );
#179 = DIRECTION( '', ( -1.00000000000000, 0.000000000000000, 0.000000000000000 ) );
#180 = SURFACE_STYLE_FILL_AREA( #278 );
#181 = ORIENTED_EDGE( '', *, *, #279, .F. );
#182 = ORIENTED_EDGE( '', *, *, #275, .F. );
#183 = ORIENTED_EDGE( '', *, *, #270, .F. );
#184 = ORIENTED_EDGE( '', *, *, #280, .F. );
#185 = ORIENTED_EDGE( '', *, *, #281, .F. );
#186 = ORIENTED_EDGE( '', *, *, #282, .F. );
#187 = ORIENTED_EDGE( '', *, *, #283, .F. );
#188 = ORIENTED_EDGE( '', *, *, #265, .F. );
#189 = ORIENTED_EDGE( '', *, *, #284, .F. );
#190 = ORIENTED_EDGE( '', *, *, #285, .F. );
#191 = CARTESIAN_POINT( '', ( 0.000000000000000, 3.25000000000000, 2.67500000000000 ) );
#192 = DIRECTION( '', ( 0.000000000000000, -1.00000000000000, 0.000000000000000 ) );
#193 = DIRECTION( '', ( 0.000000000000000, 0.000000000000000, -1.00000000000000 ) );
#194 = SURFACE_STYLE_FILL_AREA( #286 );
#195 = ORIENTED_EDGE( '', *, *, #287, .T. );
#196 = ORIENTED_EDGE( '', *, *, #288, .T. );
#197 = ORIENTED_EDGE( '', *, *, #289, .T. );
#198 = ORIENTED_EDGE( '', *, *, #267, .T. );
#199 = ORIENTED_EDGE( '', *, *, #290, .T. );
#200 = ORIENTED_EDGE( '', *, *, #291, .T. );
#201 = ORIENTED_EDGE( '', *, *, #292, .T. );
#202 = ORIENTED_EDGE( '', *, *, #293, .T. );
#203 = ORIENTED_EDGE( '', *, *, #272, .T. );
#204 = ORIENTED_EDGE( '', *, *, #277, .T. );
#205 = CARTESIAN_POINT( '', ( 0.000000000000000, -3.25000000000000, 2.67500000000000 ) );
#206 = DIRECTION( '', ( 0.000000000000000, -1.00000000000000, 0.000000000000000 ) );
#207 = DIRECTION( '', ( 0.000000000000000, 0.000000000000000, -1.00000000000000 ) );
#208 = SURFACE_STYLE_FILL_AREA( #294 );
#209 = ORIENTED_EDGE( '', *, *, #279, .T. );
#210 = ORIENTED_EDGE( '', *, *, #295, .F. );
#211 = ORIENTED_EDGE( '', *, *, #287, .F. );
#212 = ORIENTED_EDGE( '', *, *, #276, .T. );
#213 = CARTESIAN_POINT( '', ( -9.80000000000000, -3.25000000000000, 1.00000000000000 ) );
#214 = DIRECTION( '', ( 1.00000000000000, 0.000000000000000, 0.000000000000000 ) );
#215 = DIRECTION( '', ( 0.000000000000000, 0.000000000000000, -1.00000000000000 ) );
#216 = SURFACE_STYLE_FILL_AREA( #296 );
#217 = ORIENTED_EDGE( '', *, *, #281, .T. );
#218 = ORIENTED_EDGE( '', *, *, #297, .F. );
#219 = ORIENTED_EDGE( '', *, *, #292, .F. );
#220 = ORIENTED_EDGE( '', *, *, #298, .T. );
#221 = CARTESIAN_POINT( '', ( -2.67962817232397, -3.25000000000000, 2.80447313105838 ) );
#222 = DIRECTION( '', ( 0.167486393701148, 0.000000000000000, 0.985874387498217 ) );
#223 = DIRECTION( '', ( 0.985874387498217, 0.000000000000000, -0.167486393701148 ) );
#224 = SURFACE_STYLE_FILL_AREA( #299 );
#225 = ORIENTED_EDGE( '', *, *, #283, .T. );
#226 = ORIENTED_EDGE( '', *, *, #300, .F. );
#227 = ORIENTED_EDGE( '', *, *, #290, .F. );
#228 = ORIENTED_EDGE( '', *, *, #266, .T. );
#229 = CARTESIAN_POINT( '', ( -2.51214177862282, -3.25000000000000, 3.79034751855660 ) );
#230 = DIRECTION( '', ( -0.167486393701148, 0.000000000000000, -0.985874387498217 ) );
#231 = DIRECTION( '', ( -0.985874387498217, 0.000000000000000, 0.167486393701148 ) );
#232 = SURFACE_STYLE_FILL_AREA( #301 );
#233 = ORIENTED_EDGE( '', *, *, #280, .T. );
#234 = ORIENTED_EDGE( '', *, *, #273, .F. );
#235 = ORIENTED_EDGE( '', *, *, #293, .F. );
#236 = ORIENTED_EDGE( '', *, *, #297, .T. );
#237 = CARTESIAN_POINT( '', ( -2.49539313925271, -3.25000000000000, 3.88893495730641 ) );
#238 = DIRECTION( '', ( -0.000000000000000, -1.00000000000000, -0.000000000000000 ) );
#239 = DIRECTION( '', ( 0.000000000000000, 0.000000000000000, 1.00000000000000 ) );
#240 = SURFACE_STYLE_FILL_AREA( #302 );
#241 = ORIENTED_EDGE( '', *, *, #284, .T. );
#242 = ORIENTED_EDGE( '', *, *, #268, .F. );
#243 = ORIENTED_EDGE( '', *, *, #289, .F. );
#244 = ORIENTED_EDGE( '', *, *, #303, .T. );
#245 = CARTESIAN_POINT( '', ( 0.000000000000000, -3.25000000000000, 2.67500000000000 ) );
#246 = DIRECTION( '', ( -0.000000000000000, -1.00000000000000, -0.000000000000000 ) );
#247 = DIRECTION( '', ( 0.000000000000000, 0.000000000000000, 1.00000000000000 ) );
#248 = SURFACE_STYLE_FILL_AREA( #304 );
#249 = ORIENTED_EDGE( '', *, *, #282, .T. );
#250 = ORIENTED_EDGE( '', *, *, #298, .F. );
#251 = ORIENTED_EDGE( '', *, *, #291, .F. );
#252 = ORIENTED_EDGE( '', *, *, #300, .T. );
#253 = CARTESIAN_POINT( '', ( -9.80000000000000, -3.25000000000000, 4.01412561250179 ) );
#254 = DIRECTION( '', ( 0.985874387498217, 0.000000000000000, -0.167486393701148 ) );
#255 = DIRECTION( '', ( -0.167486393701148, 0.000000000000000, -0.985874387498217 ) );
#256 = SURFACE_STYLE_FILL_AREA( #305 );
#257 = ORIENTED_EDGE( '', *, *, #285, .T. );
#258 = ORIENTED_EDGE( '', *, *, #303, .F. );
#259 = ORIENTED_EDGE( '', *, *, #288, .F. );
#260 = ORIENTED_EDGE( '', *, *, #295, .T. );
#261 = CARTESIAN_POINT( '', ( -9.80000000000000, -3.25000000000000, 0.000000000000000 ) );
#262 = DIRECTION( '', ( 0.000000000000000, 0.000000000000000, 1.00000000000000 ) );
#263 = DIRECTION( '', ( 1.00000000000000, 0.000000000000000, 0.000000000000000 ) );
#264 = FILL_AREA_STYLE( '', ( #306 ) );
#265 = EDGE_CURVE( '', #307, #308, #309, .T. );
#266 = EDGE_CURVE( '', #310, #308, #311, .T. );
#267 = EDGE_CURVE( '', #312, #310, #313, .T. );
#268 = EDGE_CURVE( '', #312, #307, #314, .T. );
#269 = FILL_AREA_STYLE( '', ( #315 ) );
#270 = EDGE_CURVE( '', #316, #317, #318, .T. );
#271 = EDGE_CURVE( '', #319, #317, #320, .T. );
#272 = EDGE_CURVE( '', #321, #319, #322, .T. );
#273 = EDGE_CURVE( '', #321, #316, #323, .T. );
#274 = FILL_AREA_STYLE( '', ( #324 ) );
#275 = EDGE_CURVE( '', #317, #325, #326, .T. );
#276 = EDGE_CURVE( '', #327, #325, #328, .T. );
#277 = EDGE_CURVE( '', #319, #327, #329, .T. );
#278 = FILL_AREA_STYLE( '', ( #330 ) );
#279 = EDGE_CURVE( '', #325, #331, #332, .T. );
#280 = EDGE_CURVE( '', #333, #316, #334, .T. );
#281 = EDGE_CURVE( '', #335, #333, #336, .T. );
#282 = EDGE_CURVE( '', #337, #335, #338, .T. );
#283 = EDGE_CURVE( '', #308, #337, #339, .T. );
#284 = EDGE_CURVE( '', #340, #307, #341, .T. );
#285 = EDGE_CURVE( '', #331, #340, #342, .T. );
#286 = FILL_AREA_STYLE( '', ( #343 ) );
#287 = EDGE_CURVE( '', #327, #344, #345, .T. );
#288 = EDGE_CURVE( '', #344, #346, #347, .T. );
#289 = EDGE_CURVE( '', #346, #312, #348, .T. );
#290 = EDGE_CURVE( '', #310, #349, #350, .T. );
#291 = EDGE_CURVE( '', #349, #351, #352, .T. );
#292 = EDGE_CURVE( '', #351, #353, #354, .T. );
#293 = EDGE_CURVE( '', #353, #321, #355, .T. );
#294 = FILL_AREA_STYLE( '', ( #356 ) );
#295 = EDGE_CURVE( '', #344, #331, #357, .T. );
#296 = FILL_AREA_STYLE( '', ( #358 ) );
#297 = EDGE_CURVE( '', #353, #333, #359, .T. );
#298 = EDGE_CURVE( '', #351, #335, #360, .T. );
#299 = FILL_AREA_STYLE( '', ( #361 ) );
#300 = EDGE_CURVE( '', #349, #337, #362, .T. );
#301 = FILL_AREA_STYLE( '', ( #363 ) );
#302 = FILL_AREA_STYLE( '', ( #364 ) );
#303 = EDGE_CURVE( '', #346, #340, #365, .T. );
#304 = FILL_AREA_STYLE( '', ( #366 ) );
#305 = FILL_AREA_STYLE( '', ( #367 ) );
#306 = FILL_AREA_STYLE_COLOUR( '', #368 );
#307 = VERTEX_POINT( '', #369 );
#308 = VERTEX_POINT( '', #370 );
#309 = CIRCLE( '', #371, 0.100000000000000 );
#310 = VERTEX_POINT( '', #372 );
#311 = LINE( '', #373, #374 );
#312 = VERTEX_POINT( '', #375 );
#313 = CIRCLE( '', #376, 0.100000000000000 );
#314 = LINE( '', #377, #378 );
#315 = FILL_AREA_STYLE_COLOUR( '', #379 );
#316 = VERTEX_POINT( '', #380 );
#317 = VERTEX_POINT( '', #381 );
#318 = CIRCLE( '', #382, 1.67500000000000 );
#319 = VERTEX_POINT( '', #383 );
#320 = LINE( '', #384, #385 );
#321 = VERTEX_POINT( '', #386 );
#322 = CIRCLE( '', #387, 1.67500000000000 );
#323 = LINE( '', #388, #389 );
#324 = FILL_AREA_STYLE_COLOUR( '', #390 );
#325 = VERTEX_POINT( '', #391 );
#326 = LINE( '', #392, #393 );
#327 = VERTEX_POINT( '', #394 );
#328 = LINE( '', #395, #396 );
#329 = LINE( '', #397, #398 );
#330 = FILL_AREA_STYLE_COLOUR( '', #399 );
#331 = VERTEX_POINT( '', #400 );
#332 = LINE( '', #401, #402 );
#333 = VERTEX_POINT( '', #403 );
#334 = CIRCLE( '', #404, 1.10000000000000 );
#335 = VERTEX_POINT( '', #405 );
#336 = LINE( '', #406, #407 );
#337 = VERTEX_POINT( '', #408 );
#338 = LINE( '', #409, #410 );
#339 = LINE( '', #411, #412 );
#340 = VERTEX_POINT( '', #413 );
#341 = CIRCLE( '', #414, 2.67500000000000 );
#342 = LINE( '', #415, #416 );
#343 = FILL_AREA_STYLE_COLOUR( '', #417 );
#344 = VERTEX_POINT( '', #418 );
#345 = LINE( '', #419, #420 );
#346 = VERTEX_POINT( '', #421 );
#347 = LINE( '', #422, #423 );
#348 = CIRCLE( '', #424, 2.67500000000000 );
#349 = VERTEX_POINT( '', #425 );
#350 = LINE( '', #426, #427 );
#351 = VERTEX_POINT( '', #428 );
#352 = LINE( '', #429, #430 );
#353 = VERTEX_POINT( '', #431 );
#354 = LINE( '', #432, #433 );
#355 = CIRCLE( '', #434, 1.10000000000000 );
#356 = FILL_AREA_STYLE_COLOUR( '', #435 );
#357 = LINE( '', #436, #437 );
#358 = FILL_AREA_STYLE_COLOUR( '', #438 );
#359 = LINE( '', #439, #440 );
#360 = LINE( '', #441, #442 );
#361 = FILL_AREA_STYLE_COLOUR( '', #443 );
#362 = LINE( '', #444, #445 );
#363 = FILL_AREA_STYLE_COLOUR( '', #446 );
#364 = FILL_AREA_STYLE_COLOUR( '', #447 );
#365 = LINE( '', #448, #449 );
#366 = FILL_AREA_STYLE_COLOUR( '', #450 );
#367 = FILL_AREA_STYLE_COLOUR( '', #451 );
#368 = COLOUR_RGB( '', 0.643137276172638, 0.678431391716003, 0.698039233684540 );
#369 = CARTESIAN_POINT( '', ( -2.40546906216252, 3.25000000000000, 3.84518955343952 ) );
#370 = CARTESIAN_POINT( '', ( -2.51214177862282, 3.25000000000000, 3.79034751855660 ) );
#371 = AXIS2_PLACEMENT_3D( '', #452, #453, #454 );
#372 = CARTESIAN_POINT( '', ( -2.51214177862282, -3.25000000000000, 3.79034751855660 ) );
#373 = CARTESIAN_POINT( '', ( -2.51214177862282, -3.25000000000000, 3.79034751855660 ) );
#374 = VECTOR( '', #455, 1000.00000000000 );
#375 = CARTESIAN_POINT( '', ( -2.40546906216252, -3.25000000000000, 3.84518955343952 ) );
#376 = AXIS2_PLACEMENT_3D( '', #456, #457, #458 );
#377 = CARTESIAN_POINT( '', ( -2.40546906216252, -3.25000000000000, 3.84518955343952 ) );
#378 = VECTOR( '', #459, 1000.00000000000 );
#379 = COLOUR_RGB( '', 0.643137276172638, 0.678431391716003, 0.698039233684540 );
#380 = CARTESIAN_POINT( '', ( -1.50622829126064, 3.25000000000000, 3.40773551477054 ) );
#381 = CARTESIAN_POINT( '', ( 3.07692508285772E-016, 3.25000000000000, 1.00000000000000 ) );
#382 = AXIS2_PLACEMENT_3D( '', #460, #461, #462 );
#383 = CARTESIAN_POINT( '', ( 3.07692508285772E-016, -3.25000000000000, 1.00000000000000 ) );
#384 = CARTESIAN_POINT( '', ( 3.07692508285772E-016, -3.25000000000000, 1.00000000000000 ) );
#385 = VECTOR( '', #463, 1000.00000000000 );
#386 = CARTESIAN_POINT( '', ( -1.50622829126064, -3.25000000000000, 3.40773551477054 ) );
#387 = AXIS2_PLACEMENT_3D( '', #464, #465, #466 );
#388 = CARTESIAN_POINT( '', ( -1.50622829126064, -3.25000000000000, 3.40773551477054 ) );
#389 = VECTOR( '', #467, 1000.00000000000 );
#390 = COLOUR_RGB( '', 0.643137276172638, 0.678431391716003, 0.698039233684540 );
#391 = CARTESIAN_POINT( '', ( -9.80000000000000, 3.25000000000000, 1.00000000000000 ) );
#392 = CARTESIAN_POINT( '', ( -9.80000000000000, 3.25000000000000, 1.00000000000000 ) );
#393 = VECTOR( '', #468, 1000.00000000000 );
#394 = CARTESIAN_POINT( '', ( -9.80000000000000, -3.25000000000000, 1.00000000000000 ) );
#395 = CARTESIAN_POINT( '', ( -9.80000000000000, -3.25000000000000, 1.00000000000000 ) );
#396 = VECTOR( '', #469, 1000.00000000000 );
#397 = CARTESIAN_POINT( '', ( -9.80000000000000, -3.25000000000000, 1.00000000000000 ) );
#398 = VECTOR( '', #470, 1000.00000000000 );
#399 = COLOUR_RGB( '', 0.643137276172638, 0.678431391716003, 0.698039233684540 );
#400 = CARTESIAN_POINT( '', ( -9.80000000000000, 3.25000000000000, 0.000000000000000 ) );
#401 = CARTESIAN_POINT( '', ( -9.80000000000000, 3.25000000000000, 1.00000000000000 ) );
#402 = VECTOR( '', #471, 1000.00000000000 );
#403 = CARTESIAN_POINT( '', ( -2.67962817232397, 3.25000000000000, 2.80447313105838 ) );
#404 = AXIS2_PLACEMENT_3D( '', #472, #473, #474 );
#405 = CARTESIAN_POINT( '', ( -9.80000000000000, 3.25000000000000, 4.01412561250179 ) );
#406 = CARTESIAN_POINT( '', ( -2.67962817232397, 3.25000000000000, 2.80447313105838 ) );
#407 = VECTOR( '', #475, 1000.00000000000 );
#408 = CARTESIAN_POINT( '', ( -9.63251360629885, 3.25000000000000, 5.00000000000000 ) );
#409 = CARTESIAN_POINT( '', ( -9.80000000000000, 3.25000000000000, 4.01412561250179 ) );
#410 = VECTOR( '', #476, 1000.00000000000 );
#411 = CARTESIAN_POINT( '', ( -2.51214177862282, 3.25000000000000, 3.79034751855660 ) );
#412 = VECTOR( '', #477, 1000.00000000000 );
#413 = CARTESIAN_POINT( '', ( 0.000000000000000, 3.25000000000000, 0.000000000000000 ) );
#414 = AXIS2_PLACEMENT_3D( '', #478, #479, #480 );
#415 = CARTESIAN_POINT( '', ( -9.80000000000000, 3.25000000000000, 0.000000000000000 ) );
#416 = VECTOR( '', #481, 1000.00000000000 );
#417 = COLOUR_RGB( '', 0.643137276172638, 0.678431391716003, 0.698039233684540 );
#418 = CARTESIAN_POINT( '', ( -9.80000000000000, -3.25000000000000, 0.000000000000000 ) );
#419 = CARTESIAN_POINT( '', ( -9.80000000000000, -3.25000000000000, 1.00000000000000 ) );
#420 = VECTOR( '', #482, 1000.00000000000 );
#421 = CARTESIAN_POINT( '', ( 0.000000000000000, -3.25000000000000, 0.000000000000000 ) );
#422 = CARTESIAN_POINT( '', ( -9.80000000000000, -3.25000000000000, 0.000000000000000 ) );
#423 = VECTOR( '', #483, 1000.00000000000 );
#424 = AXIS2_PLACEMENT_3D( '', #484, #485, #486 );
#425 = CARTESIAN_POINT( '', ( -9.63251360629885, -3.25000000000000, 5.00000000000000 ) );
#426 = CARTESIAN_POINT( '', ( -2.51214177862282, -3.25000000000000, 3.79034751855660 ) );
#427 = VECTOR( '', #487, 1000.00000000000 );
#428 = CARTESIAN_POINT( '', ( -9.80000000000000, -3.25000000000000, 4.01412561250179 ) );
#429 = CARTESIAN_POINT( '', ( -9.80000000000000, -3.25000000000000, 4.01412561250179 ) );
#430 = VECTOR( '', #488, 1000.00000000000 );
#431 = CARTESIAN_POINT( '', ( -2.67962817232397, -3.25000000000000, 2.80447313105838 ) );
#432 = CARTESIAN_POINT( '', ( -2.67962817232397, -3.25000000000000, 2.80447313105838 ) );
#433 = VECTOR( '', #489, 1000.00000000000 );
#434 = AXIS2_PLACEMENT_3D( '', #490, #491, #492 );
#435 = COLOUR_RGB( '', 0.643137276172638, 0.678431391716003, 0.698039233684540 );
#436 = CARTESIAN_POINT( '', ( -9.80000000000000, -3.25000000000000, 0.000000000000000 ) );
#437 = VECTOR( '', #493, 1000.00000000000 );
#438 = COLOUR_RGB( '', 0.643137276172638, 0.678431391716003, 0.698039233684540 );
#439 = CARTESIAN_POINT( '', ( -2.67962817232397, -3.25000000000000, 2.80447313105838 ) );
#440 = VECTOR( '', #494, 1000.00000000000 );
#441 = CARTESIAN_POINT( '', ( -9.80000000000000, -3.25000000000000, 4.01412561250179 ) );
#442 = VECTOR( '', #495, 1000.00000000000 );
#443 = COLOUR_RGB( '', 0.643137276172638, 0.678431391716003, 0.698039233684540 );
#444 = CARTESIAN_POINT( '', ( -9.63251360629885, -3.25000000000000, 5.00000000000000 ) );
#445 = VECTOR( '', #496, 1000.00000000000 );
#446 = COLOUR_RGB( '', 0.643137276172638, 0.678431391716003, 0.698039233684540 );
#447 = COLOUR_RGB( '', 0.643137276172638, 0.678431391716003, 0.698039233684540 );
#448 = CARTESIAN_POINT( '', ( 0.000000000000000, -3.25000000000000, 0.000000000000000 ) );
#449 = VECTOR( '', #497, 1000.00000000000 );
#450 = COLOUR_RGB( '', 0.643137276172638, 0.678431391716003, 0.698039233684540 );
#451 = COLOUR_RGB( '', 0.643137276172638, 0.678431391716003, 0.698039233684540 );
#452 = CARTESIAN_POINT( '', ( -2.49539313925271, 3.25000000000000, 3.88893495730641 ) );
#453 = DIRECTION( '', ( -0.000000000000000, 1.00000000000000, 0.000000000000000 ) );
#454 = DIRECTION( '', ( 1.00000000000000, 0.000000000000000, 0.000000000000000 ) );
#455 = DIRECTION( '', ( 0.000000000000000, 1.00000000000000, 0.000000000000000 ) );
#456 = CARTESIAN_POINT( '', ( -2.49539313925271, -3.25000000000000, 3.88893495730641 ) );
#457 = DIRECTION( '', ( -0.000000000000000, 1.00000000000000, 0.000000000000000 ) );
#458 = DIRECTION( '', ( 1.00000000000000, 0.000000000000000, 0.000000000000000 ) );
#459 = DIRECTION( '', ( 0.000000000000000, 1.00000000000000, 0.000000000000000 ) );
#460 = CARTESIAN_POINT( '', ( 0.000000000000000, 3.25000000000000, 2.67500000000000 ) );
#461 = DIRECTION( '', ( 0.000000000000000, 1.00000000000000, 0.000000000000000 ) );
#462 = DIRECTION( '', ( -1.00000000000000, 0.000000000000000, 0.000000000000000 ) );
#463 = DIRECTION( '', ( 0.000000000000000, 1.00000000000000, 0.000000000000000 ) );
#464 = CARTESIAN_POINT( '', ( 0.000000000000000, -3.25000000000000, 2.67500000000000 ) );
#465 = DIRECTION( '', ( 0.000000000000000, 1.00000000000000, 0.000000000000000 ) );
#466 = DIRECTION( '', ( -1.00000000000000, 0.000000000000000, 0.000000000000000 ) );
#467 = DIRECTION( '', ( 0.000000000000000, 1.00000000000000, 0.000000000000000 ) );
#468 = DIRECTION( '', ( -1.00000000000000, 0.000000000000000, 0.000000000000000 ) );
#469 = DIRECTION( '', ( 0.000000000000000, 1.00000000000000, 0.000000000000000 ) );
#470 = DIRECTION( '', ( -1.00000000000000, 0.000000000000000, 0.000000000000000 ) );
#471 = DIRECTION( '', ( 0.000000000000000, 0.000000000000000, -1.00000000000000 ) );
#472 = CARTESIAN_POINT( '', ( -2.49539313925271, 3.25000000000000, 3.88893495730641 ) );
#473 = DIRECTION( '', ( 0.000000000000000, -1.00000000000000, 0.000000000000000 ) );
#474 = DIRECTION( '', ( 1.00000000000000, 0.000000000000000, 0.000000000000000 ) );
#475 = DIRECTION( '', ( 0.985874387498217, 0.000000000000000, -0.167486393701148 ) );
#476 = DIRECTION( '', ( -0.167486393701148, 0.000000000000000, -0.985874387498217 ) );
#477 = DIRECTION( '', ( -0.985874387498217, 0.000000000000000, 0.167486393701148 ) );
#478 = CARTESIAN_POINT( '', ( 0.000000000000000, 3.25000000000000, 2.67500000000000 ) );
#479 = DIRECTION( '', ( 0.000000000000000, -1.00000000000000, 0.000000000000000 ) );
#480 = DIRECTION( '', ( -1.00000000000000, 0.000000000000000, 0.000000000000000 ) );
#481 = DIRECTION( '', ( 1.00000000000000, 0.000000000000000, 0.000000000000000 ) );
#482 = DIRECTION( '', ( 0.000000000000000, 0.000000000000000, -1.00000000000000 ) );
#483 = DIRECTION( '', ( 1.00000000000000, 0.000000000000000, 0.000000000000000 ) );
#484 = CARTESIAN_POINT( '', ( 0.000000000000000, -3.25000000000000, 2.67500000000000 ) );
#485 = DIRECTION( '', ( 0.000000000000000, -1.00000000000000, 0.000000000000000 ) );
#486 = DIRECTION( '', ( -1.00000000000000, 0.000000000000000, 0.000000000000000 ) );
#487 = DIRECTION( '', ( -0.985874387498217, 0.000000000000000, 0.167486393701148 ) );
#488 = DIRECTION( '', ( -0.167486393701148, 0.000000000000000, -0.985874387498217 ) );
#489 = DIRECTION( '', ( 0.985874387498217, 0.000000000000000, -0.167486393701148 ) );
#490 = CARTESIAN_POINT( '', ( -2.49539313925271, -3.25000000000000, 3.88893495730641 ) );
#491 = DIRECTION( '', ( 0.000000000000000, -1.00000000000000, 0.000000000000000 ) );
#492 = DIRECTION( '', ( 1.00000000000000, 0.000000000000000, 0.000000000000000 ) );
#493 = DIRECTION( '', ( 0.000000000000000, 1.00000000000000, 0.000000000000000 ) );
#494 = DIRECTION( '', ( 0.000000000000000, 1.00000000000000, 0.000000000000000 ) );
#495 = DIRECTION( '', ( 0.000000000000000, 1.00000000000000, 0.000000000000000 ) );
#496 = DIRECTION( '', ( 0.000000000000000, 1.00000000000000, 0.000000000000000 ) );
#497 = DIRECTION( '', ( 0.000000000000000, 1.00000000000000, 0.000000000000000 ) );
ENDSEC;
END-ISO-10303-21;
