ISO-10303-21;
HEADER;
/* Generated by software containing ST-Developer
 * from STEP Tools, Inc. (www.steptools.com) 
 */
/* OPTION: strings as raw bytes, not using required /X/ escapes */

FILE_DESCRIPTION(
/* description */ ('Unknown'),
/* implementation_level */ '2;1');

FILE_NAME(
/* name */ '40001050',
/* time_stamp */ '2020-02-13T10:39:54+01:00',
/* author */ ('Unknown'),
/* organization */ ('Unknown'),
/* preprocessor_version */ 'ST-DEVELOPER v16.7',
/* originating_system */ 'DEX',
/* authorisation */ $);

FILE_SCHEMA (('AUTOMOTIVE_DESIGN {1 0 10303 214 3 1 1}'));
ENDSEC;

DATA;
#10=PROPERTY_DEFINITION_REPRESENTATION(#14,#12);
#11=PROPERTY_DEFINITION_REPRESENTATION(#15,#13);
#12=REPRESENTATION('',(#16),#533);
#13=REPRESENTATION('',(#17),#533);
#14=PROPERTY_DEFINITION('pmi validation property','',#544);
#15=PROPERTY_DEFINITION('pmi validation property','',#544);
#16=VALUE_REPRESENTATION_ITEM('number of annotations',COUNT_MEASURE(0.));
#17=VALUE_REPRESENTATION_ITEM('number of views',COUNT_MEASURE(0.));
#18=CONTEXT_DEPENDENT_SHAPE_REPRESENTATION(#24,#546);
#19=CONTEXT_DEPENDENT_SHAPE_REPRESENTATION(#25,#548);
#20=CONTEXT_DEPENDENT_SHAPE_REPRESENTATION(#26,#550);
#21=NEXT_ASSEMBLY_USAGE_OCCURRENCE('Silicone with ceramic particles',
'Silicone with ceramic particles','Silicone with ceramic particles',#551,
#552,'');
#22=NEXT_ASSEMBLY_USAGE_OCCURRENCE('Top PE film','Top PE film',
'Top PE film',#551,#553,'');
#23=NEXT_ASSEMBLY_USAGE_OCCURRENCE('Bottom PET film','Bottom PET film',
'Bottom PET film',#551,#554,'');
#24=(
REPRESENTATION_RELATIONSHIP(' ',' ',#344,#345)
REPRESENTATION_RELATIONSHIP_WITH_TRANSFORMATION(#27)
SHAPE_REPRESENTATION_RELATIONSHIP()
);
#25=(
REPRESENTATION_RELATIONSHIP(' ',' ',#346,#345)
REPRESENTATION_RELATIONSHIP_WITH_TRANSFORMATION(#28)
SHAPE_REPRESENTATION_RELATIONSHIP()
);
#26=(
REPRESENTATION_RELATIONSHIP(' ',' ',#347,#345)
REPRESENTATION_RELATIONSHIP_WITH_TRANSFORMATION(#29)
SHAPE_REPRESENTATION_RELATIONSHIP()
);
#27=ITEM_DEFINED_TRANSFORMATION(' ',' ',#348,#355);
#28=ITEM_DEFINED_TRANSFORMATION(' ',' ',#348,#362);
#29=ITEM_DEFINED_TRANSFORMATION(' ',' ',#348,#369);
#30=SHAPE_REPRESENTATION_RELATIONSHIP('','',#344,#33);
#31=SHAPE_REPRESENTATION_RELATIONSHIP('','',#346,#34);
#32=SHAPE_REPRESENTATION_RELATIONSHIP('','',#347,#35);
#33=ADVANCED_BREP_SHAPE_REPRESENTATION('',(#337),#534);
#34=ADVANCED_BREP_SHAPE_REPRESENTATION('',(#338),#535);
#35=ADVANCED_BREP_SHAPE_REPRESENTATION('',(#339),#536);
#36=ORIENTED_EDGE('',*,*,#108,.T.);
#37=ORIENTED_EDGE('',*,*,#109,.F.);
#38=ORIENTED_EDGE('',*,*,#110,.F.);
#39=ORIENTED_EDGE('',*,*,#111,.T.);
#40=ORIENTED_EDGE('',*,*,#112,.T.);
#41=ORIENTED_EDGE('',*,*,#113,.F.);
#42=ORIENTED_EDGE('',*,*,#114,.F.);
#43=ORIENTED_EDGE('',*,*,#109,.T.);
#44=ORIENTED_EDGE('',*,*,#115,.T.);
#45=ORIENTED_EDGE('',*,*,#116,.F.);
#46=ORIENTED_EDGE('',*,*,#117,.F.);
#47=ORIENTED_EDGE('',*,*,#113,.T.);
#48=ORIENTED_EDGE('',*,*,#118,.T.);
#49=ORIENTED_EDGE('',*,*,#111,.F.);
#50=ORIENTED_EDGE('',*,*,#119,.F.);
#51=ORIENTED_EDGE('',*,*,#116,.T.);
#52=ORIENTED_EDGE('',*,*,#110,.T.);
#53=ORIENTED_EDGE('',*,*,#114,.T.);
#54=ORIENTED_EDGE('',*,*,#117,.T.);
#55=ORIENTED_EDGE('',*,*,#119,.T.);
#56=ORIENTED_EDGE('',*,*,#108,.F.);
#57=ORIENTED_EDGE('',*,*,#118,.F.);
#58=ORIENTED_EDGE('',*,*,#115,.F.);
#59=ORIENTED_EDGE('',*,*,#112,.F.);
#60=ORIENTED_EDGE('',*,*,#120,.T.);
#61=ORIENTED_EDGE('',*,*,#121,.F.);
#62=ORIENTED_EDGE('',*,*,#122,.F.);
#63=ORIENTED_EDGE('',*,*,#123,.T.);
#64=ORIENTED_EDGE('',*,*,#124,.T.);
#65=ORIENTED_EDGE('',*,*,#125,.F.);
#66=ORIENTED_EDGE('',*,*,#126,.F.);
#67=ORIENTED_EDGE('',*,*,#121,.T.);
#68=ORIENTED_EDGE('',*,*,#127,.T.);
#69=ORIENTED_EDGE('',*,*,#128,.F.);
#70=ORIENTED_EDGE('',*,*,#129,.F.);
#71=ORIENTED_EDGE('',*,*,#125,.T.);
#72=ORIENTED_EDGE('',*,*,#130,.T.);
#73=ORIENTED_EDGE('',*,*,#123,.F.);
#74=ORIENTED_EDGE('',*,*,#131,.F.);
#75=ORIENTED_EDGE('',*,*,#128,.T.);
#76=ORIENTED_EDGE('',*,*,#122,.T.);
#77=ORIENTED_EDGE('',*,*,#126,.T.);
#78=ORIENTED_EDGE('',*,*,#129,.T.);
#79=ORIENTED_EDGE('',*,*,#131,.T.);
#80=ORIENTED_EDGE('',*,*,#120,.F.);
#81=ORIENTED_EDGE('',*,*,#130,.F.);
#82=ORIENTED_EDGE('',*,*,#127,.F.);
#83=ORIENTED_EDGE('',*,*,#124,.F.);
#84=ORIENTED_EDGE('',*,*,#132,.T.);
#85=ORIENTED_EDGE('',*,*,#133,.F.);
#86=ORIENTED_EDGE('',*,*,#134,.F.);
#87=ORIENTED_EDGE('',*,*,#135,.T.);
#88=ORIENTED_EDGE('',*,*,#136,.T.);
#89=ORIENTED_EDGE('',*,*,#137,.F.);
#90=ORIENTED_EDGE('',*,*,#138,.F.);
#91=ORIENTED_EDGE('',*,*,#133,.T.);
#92=ORIENTED_EDGE('',*,*,#139,.T.);
#93=ORIENTED_EDGE('',*,*,#140,.F.);
#94=ORIENTED_EDGE('',*,*,#141,.F.);
#95=ORIENTED_EDGE('',*,*,#137,.T.);
#96=ORIENTED_EDGE('',*,*,#142,.T.);
#97=ORIENTED_EDGE('',*,*,#135,.F.);
#98=ORIENTED_EDGE('',*,*,#143,.F.);
#99=ORIENTED_EDGE('',*,*,#140,.T.);
#100=ORIENTED_EDGE('',*,*,#134,.T.);
#101=ORIENTED_EDGE('',*,*,#138,.T.);
#102=ORIENTED_EDGE('',*,*,#141,.T.);
#103=ORIENTED_EDGE('',*,*,#143,.T.);
#104=ORIENTED_EDGE('',*,*,#132,.F.);
#105=ORIENTED_EDGE('',*,*,#142,.F.);
#106=ORIENTED_EDGE('',*,*,#139,.F.);
#107=ORIENTED_EDGE('',*,*,#136,.F.);
#108=EDGE_CURVE('',#144,#145,#168,.T.);
#109=EDGE_CURVE('',#146,#145,#169,.T.);
#110=EDGE_CURVE('',#147,#146,#170,.T.);
#111=EDGE_CURVE('',#147,#144,#171,.T.);
#112=EDGE_CURVE('',#145,#148,#172,.T.);
#113=EDGE_CURVE('',#149,#148,#173,.T.);
#114=EDGE_CURVE('',#146,#149,#174,.T.);
#115=EDGE_CURVE('',#148,#150,#175,.T.);
#116=EDGE_CURVE('',#151,#150,#176,.T.);
#117=EDGE_CURVE('',#149,#151,#177,.T.);
#118=EDGE_CURVE('',#150,#144,#178,.T.);
#119=EDGE_CURVE('',#151,#147,#179,.T.);
#120=EDGE_CURVE('',#152,#153,#180,.T.);
#121=EDGE_CURVE('',#154,#153,#181,.T.);
#122=EDGE_CURVE('',#155,#154,#182,.T.);
#123=EDGE_CURVE('',#155,#152,#183,.T.);
#124=EDGE_CURVE('',#153,#156,#184,.T.);
#125=EDGE_CURVE('',#157,#156,#185,.T.);
#126=EDGE_CURVE('',#154,#157,#186,.T.);
#127=EDGE_CURVE('',#156,#158,#187,.T.);
#128=EDGE_CURVE('',#159,#158,#188,.T.);
#129=EDGE_CURVE('',#157,#159,#189,.T.);
#130=EDGE_CURVE('',#158,#152,#190,.T.);
#131=EDGE_CURVE('',#159,#155,#191,.T.);
#132=EDGE_CURVE('',#160,#161,#192,.T.);
#133=EDGE_CURVE('',#162,#161,#193,.T.);
#134=EDGE_CURVE('',#163,#162,#194,.T.);
#135=EDGE_CURVE('',#163,#160,#195,.T.);
#136=EDGE_CURVE('',#161,#164,#196,.T.);
#137=EDGE_CURVE('',#165,#164,#197,.T.);
#138=EDGE_CURVE('',#162,#165,#198,.T.);
#139=EDGE_CURVE('',#164,#166,#199,.T.);
#140=EDGE_CURVE('',#167,#166,#200,.T.);
#141=EDGE_CURVE('',#165,#167,#201,.T.);
#142=EDGE_CURVE('',#166,#160,#202,.T.);
#143=EDGE_CURVE('',#167,#163,#203,.T.);
#144=VERTEX_POINT('',#453);
#145=VERTEX_POINT('',#454);
#146=VERTEX_POINT('',#456);
#147=VERTEX_POINT('',#458);
#148=VERTEX_POINT('',#462);
#149=VERTEX_POINT('',#464);
#150=VERTEX_POINT('',#468);
#151=VERTEX_POINT('',#470);
#152=VERTEX_POINT('',#480);
#153=VERTEX_POINT('',#481);
#154=VERTEX_POINT('',#483);
#155=VERTEX_POINT('',#485);
#156=VERTEX_POINT('',#489);
#157=VERTEX_POINT('',#491);
#158=VERTEX_POINT('',#495);
#159=VERTEX_POINT('',#497);
#160=VERTEX_POINT('',#507);
#161=VERTEX_POINT('',#508);
#162=VERTEX_POINT('',#510);
#163=VERTEX_POINT('',#512);
#164=VERTEX_POINT('',#516);
#165=VERTEX_POINT('',#518);
#166=VERTEX_POINT('',#522);
#167=VERTEX_POINT('',#524);
#168=LINE('',#452,#204);
#169=LINE('',#455,#205);
#170=LINE('',#457,#206);
#171=LINE('',#459,#207);
#172=LINE('',#461,#208);
#173=LINE('',#463,#209);
#174=LINE('',#465,#210);
#175=LINE('',#467,#211);
#176=LINE('',#469,#212);
#177=LINE('',#471,#213);
#178=LINE('',#473,#214);
#179=LINE('',#474,#215);
#180=LINE('',#479,#216);
#181=LINE('',#482,#217);
#182=LINE('',#484,#218);
#183=LINE('',#486,#219);
#184=LINE('',#488,#220);
#185=LINE('',#490,#221);
#186=LINE('',#492,#222);
#187=LINE('',#494,#223);
#188=LINE('',#496,#224);
#189=LINE('',#498,#225);
#190=LINE('',#500,#226);
#191=LINE('',#501,#227);
#192=LINE('',#506,#228);
#193=LINE('',#509,#229);
#194=LINE('',#511,#230);
#195=LINE('',#513,#231);
#196=LINE('',#515,#232);
#197=LINE('',#517,#233);
#198=LINE('',#519,#234);
#199=LINE('',#521,#235);
#200=LINE('',#523,#236);
#201=LINE('',#525,#237);
#202=LINE('',#527,#238);
#203=LINE('',#528,#239);
#204=VECTOR('',#374,1000.);
#205=VECTOR('',#375,1000.);
#206=VECTOR('',#376,1000.);
#207=VECTOR('',#377,1000.);
#208=VECTOR('',#380,1000.);
#209=VECTOR('',#381,1000.);
#210=VECTOR('',#382,1000.);
#211=VECTOR('',#385,1000.);
#212=VECTOR('',#386,1000.);
#213=VECTOR('',#387,1000.);
#214=VECTOR('',#390,1000.);
#215=VECTOR('',#391,1000.);
#216=VECTOR('',#400,1000.);
#217=VECTOR('',#401,1000.);
#218=VECTOR('',#402,1000.);
#219=VECTOR('',#403,1000.);
#220=VECTOR('',#406,1000.);
#221=VECTOR('',#407,1000.);
#222=VECTOR('',#408,1000.);
#223=VECTOR('',#411,1000.);
#224=VECTOR('',#412,1000.);
#225=VECTOR('',#413,1000.);
#226=VECTOR('',#416,1000.);
#227=VECTOR('',#417,1000.);
#228=VECTOR('',#426,1000.);
#229=VECTOR('',#427,1000.);
#230=VECTOR('',#428,1000.);
#231=VECTOR('',#429,1000.);
#232=VECTOR('',#432,1000.);
#233=VECTOR('',#433,1000.);
#234=VECTOR('',#434,1000.);
#235=VECTOR('',#437,1000.);
#236=VECTOR('',#438,1000.);
#237=VECTOR('',#439,1000.);
#238=VECTOR('',#442,1000.);
#239=VECTOR('',#443,1000.);
#240=EDGE_LOOP('',(#36,#37,#38,#39));
#241=EDGE_LOOP('',(#40,#41,#42,#43));
#242=EDGE_LOOP('',(#44,#45,#46,#47));
#243=EDGE_LOOP('',(#48,#49,#50,#51));
#244=EDGE_LOOP('',(#52,#53,#54,#55));
#245=EDGE_LOOP('',(#56,#57,#58,#59));
#246=EDGE_LOOP('',(#60,#61,#62,#63));
#247=EDGE_LOOP('',(#64,#65,#66,#67));
#248=EDGE_LOOP('',(#68,#69,#70,#71));
#249=EDGE_LOOP('',(#72,#73,#74,#75));
#250=EDGE_LOOP('',(#76,#77,#78,#79));
#251=EDGE_LOOP('',(#80,#81,#82,#83));
#252=EDGE_LOOP('',(#84,#85,#86,#87));
#253=EDGE_LOOP('',(#88,#89,#90,#91));
#254=EDGE_LOOP('',(#92,#93,#94,#95));
#255=EDGE_LOOP('',(#96,#97,#98,#99));
#256=EDGE_LOOP('',(#100,#101,#102,#103));
#257=EDGE_LOOP('',(#104,#105,#106,#107));
#258=FACE_BOUND('',#240,.T.);
#259=FACE_BOUND('',#241,.T.);
#260=FACE_BOUND('',#242,.T.);
#261=FACE_BOUND('',#243,.T.);
#262=FACE_BOUND('',#244,.T.);
#263=FACE_BOUND('',#245,.T.);
#264=FACE_BOUND('',#246,.T.);
#265=FACE_BOUND('',#247,.T.);
#266=FACE_BOUND('',#248,.T.);
#267=FACE_BOUND('',#249,.T.);
#268=FACE_BOUND('',#250,.T.);
#269=FACE_BOUND('',#251,.T.);
#270=FACE_BOUND('',#252,.T.);
#271=FACE_BOUND('',#253,.T.);
#272=FACE_BOUND('',#254,.T.);
#273=FACE_BOUND('',#255,.T.);
#274=FACE_BOUND('',#256,.T.);
#275=FACE_BOUND('',#257,.T.);
#276=PLANE('',#349);
#277=PLANE('',#350);
#278=PLANE('',#351);
#279=PLANE('',#352);
#280=PLANE('',#353);
#281=PLANE('',#354);
#282=PLANE('',#356);
#283=PLANE('',#357);
#284=PLANE('',#358);
#285=PLANE('',#359);
#286=PLANE('',#360);
#287=PLANE('',#361);
#288=PLANE('',#363);
#289=PLANE('',#364);
#290=PLANE('',#365);
#291=PLANE('',#366);
#292=PLANE('',#367);
#293=PLANE('',#368);
#294=ADVANCED_FACE('',(#258),#276,.F.);
#295=ADVANCED_FACE('',(#259),#277,.F.);
#296=ADVANCED_FACE('',(#260),#278,.F.);
#297=ADVANCED_FACE('',(#261),#279,.F.);
#298=ADVANCED_FACE('',(#262),#280,.T.);
#299=ADVANCED_FACE('',(#263),#281,.F.);
#300=ADVANCED_FACE('',(#264),#282,.F.);
#301=ADVANCED_FACE('',(#265),#283,.F.);
#302=ADVANCED_FACE('',(#266),#284,.F.);
#303=ADVANCED_FACE('',(#267),#285,.F.);
#304=ADVANCED_FACE('',(#268),#286,.T.);
#305=ADVANCED_FACE('',(#269),#287,.F.);
#306=ADVANCED_FACE('',(#270),#288,.F.);
#307=ADVANCED_FACE('',(#271),#289,.F.);
#308=ADVANCED_FACE('',(#272),#290,.F.);
#309=ADVANCED_FACE('',(#273),#291,.F.);
#310=ADVANCED_FACE('',(#274),#292,.T.);
#311=ADVANCED_FACE('',(#275),#293,.F.);
#312=CLOSED_SHELL('',(#294,#295,#296,#297,#298,#299));
#313=CLOSED_SHELL('',(#300,#301,#302,#303,#304,#305));
#314=CLOSED_SHELL('',(#306,#307,#308,#309,#310,#311));
#315=STYLED_ITEM('',(#318),#337);
#316=STYLED_ITEM('',(#319),#338);
#317=STYLED_ITEM('',(#320),#339);
#318=PRESENTATION_STYLE_ASSIGNMENT((#321));
#319=PRESENTATION_STYLE_ASSIGNMENT((#322));
#320=PRESENTATION_STYLE_ASSIGNMENT((#323));
#321=SURFACE_STYLE_USAGE(.BOTH.,#324);
#322=SURFACE_STYLE_USAGE(.BOTH.,#325);
#323=SURFACE_STYLE_USAGE(.BOTH.,#326);
#324=SURFACE_SIDE_STYLE('',(#327));
#325=SURFACE_SIDE_STYLE('',(#328));
#326=SURFACE_SIDE_STYLE('',(#329));
#327=SURFACE_STYLE_FILL_AREA(#330);
#328=SURFACE_STYLE_FILL_AREA(#331);
#329=SURFACE_STYLE_FILL_AREA(#332);
#330=FILL_AREA_STYLE('',(#333));
#331=FILL_AREA_STYLE('',(#334));
#332=FILL_AREA_STYLE('',(#335));
#333=FILL_AREA_STYLE_COLOUR('',#336);
#334=FILL_AREA_STYLE_COLOUR('',#336);
#335=FILL_AREA_STYLE_COLOUR('',#336);
#336=COLOUR_RGB('',0.645180702209473,0.678915679454803,0.699999988079071);
#337=MANIFOLD_SOLID_BREP('',#312);
#338=MANIFOLD_SOLID_BREP('',#313);
#339=MANIFOLD_SOLID_BREP('',#314);
#340=SHAPE_DEFINITION_REPRESENTATION(#545,#344);
#341=SHAPE_DEFINITION_REPRESENTATION(#544,#345);
#342=SHAPE_DEFINITION_REPRESENTATION(#547,#346);
#343=SHAPE_DEFINITION_REPRESENTATION(#549,#347);
#344=SHAPE_REPRESENTATION('Silicone with ceramic particles',(#348),#534);
#345=SHAPE_REPRESENTATION('40001050',(#348,#355,#362,#369),#533);
#346=SHAPE_REPRESENTATION('Top PE film',(#348),#535);
#347=SHAPE_REPRESENTATION('Bottom PET film',(#348),#536);
#348=AXIS2_PLACEMENT_3D('',#450,#370,#371);
#349=AXIS2_PLACEMENT_3D('',#451,#372,#373);
#350=AXIS2_PLACEMENT_3D('',#460,#378,#379);
#351=AXIS2_PLACEMENT_3D('',#466,#383,#384);
#352=AXIS2_PLACEMENT_3D('',#472,#388,#389);
#353=AXIS2_PLACEMENT_3D('',#475,#392,#393);
#354=AXIS2_PLACEMENT_3D('',#476,#394,#395);
#355=AXIS2_PLACEMENT_3D('',#477,#396,#397);
#356=AXIS2_PLACEMENT_3D('',#478,#398,#399);
#357=AXIS2_PLACEMENT_3D('',#487,#404,#405);
#358=AXIS2_PLACEMENT_3D('',#493,#409,#410);
#359=AXIS2_PLACEMENT_3D('',#499,#414,#415);
#360=AXIS2_PLACEMENT_3D('',#502,#418,#419);
#361=AXIS2_PLACEMENT_3D('',#503,#420,#421);
#362=AXIS2_PLACEMENT_3D('',#504,#422,#423);
#363=AXIS2_PLACEMENT_3D('',#505,#424,#425);
#364=AXIS2_PLACEMENT_3D('',#514,#430,#431);
#365=AXIS2_PLACEMENT_3D('',#520,#435,#436);
#366=AXIS2_PLACEMENT_3D('',#526,#440,#441);
#367=AXIS2_PLACEMENT_3D('',#529,#444,#445);
#368=AXIS2_PLACEMENT_3D('',#530,#446,#447);
#369=AXIS2_PLACEMENT_3D('',#531,#448,#449);
#370=DIRECTION('',(0.,0.,1.));
#371=DIRECTION('',(1.,0.,0.));
#372=DIRECTION('',(1.,0.,0.));
#373=DIRECTION('',(0.,0.,-1.));
#374=DIRECTION('',(0.,-1.,0.));
#375=DIRECTION('',(0.,0.,-1.));
#376=DIRECTION('',(0.,-1.,0.));
#377=DIRECTION('',(0.,0.,-1.));
#378=DIRECTION('',(0.,1.,0.));
#379=DIRECTION('',(0.,0.,1.));
#380=DIRECTION('',(1.,0.,0.));
#381=DIRECTION('',(0.,0.,-1.));
#382=DIRECTION('',(1.,0.,0.));
#383=DIRECTION('',(-1.,0.,0.));
#384=DIRECTION('',(0.,0.,1.));
#385=DIRECTION('',(0.,1.,0.));
#386=DIRECTION('',(0.,0.,-1.));
#387=DIRECTION('',(0.,1.,0.));
#388=DIRECTION('',(0.,-1.,0.));
#389=DIRECTION('',(0.,0.,-1.));
#390=DIRECTION('',(-1.,0.,0.));
#391=DIRECTION('',(-1.,0.,0.));
#392=DIRECTION('',(0.,0.,1.));
#393=DIRECTION('',(1.,0.,0.));
#394=DIRECTION('',(0.,0.,1.));
#395=DIRECTION('',(1.,0.,0.));
#396=DIRECTION('',(0.,0.,1.));
#397=DIRECTION('',(1.,0.,0.));
#398=DIRECTION('',(1.,0.,0.));
#399=DIRECTION('',(0.,0.,-1.));
#400=DIRECTION('',(0.,-1.,0.));
#401=DIRECTION('',(0.,0.,-1.));
#402=DIRECTION('',(0.,-1.,0.));
#403=DIRECTION('',(0.,0.,-1.));
#404=DIRECTION('',(0.,1.,0.));
#405=DIRECTION('',(0.,0.,1.));
#406=DIRECTION('',(1.,0.,0.));
#407=DIRECTION('',(0.,0.,-1.));
#408=DIRECTION('',(1.,0.,0.));
#409=DIRECTION('',(-1.,0.,0.));
#410=DIRECTION('',(0.,0.,1.));
#411=DIRECTION('',(0.,1.,0.));
#412=DIRECTION('',(0.,0.,-1.));
#413=DIRECTION('',(0.,1.,0.));
#414=DIRECTION('',(0.,-1.,0.));
#415=DIRECTION('',(0.,0.,-1.));
#416=DIRECTION('',(-1.,0.,0.));
#417=DIRECTION('',(-1.,0.,0.));
#418=DIRECTION('',(0.,0.,1.));
#419=DIRECTION('',(1.,0.,0.));
#420=DIRECTION('',(0.,0.,1.));
#421=DIRECTION('',(1.,0.,0.));
#422=DIRECTION('',(0.,0.,1.));
#423=DIRECTION('',(1.,0.,0.));
#424=DIRECTION('',(1.,0.,0.));
#425=DIRECTION('',(0.,0.,-1.));
#426=DIRECTION('',(0.,-1.,0.));
#427=DIRECTION('',(0.,0.,-1.));
#428=DIRECTION('',(0.,-1.,0.));
#429=DIRECTION('',(0.,0.,-1.));
#430=DIRECTION('',(0.,1.,0.));
#431=DIRECTION('',(0.,0.,1.));
#432=DIRECTION('',(1.,0.,0.));
#433=DIRECTION('',(0.,0.,-1.));
#434=DIRECTION('',(1.,0.,0.));
#435=DIRECTION('',(-1.,0.,0.));
#436=DIRECTION('',(0.,0.,1.));
#437=DIRECTION('',(0.,1.,0.));
#438=DIRECTION('',(0.,0.,-1.));
#439=DIRECTION('',(0.,1.,0.));
#440=DIRECTION('',(0.,-1.,0.));
#441=DIRECTION('',(0.,0.,-1.));
#442=DIRECTION('',(-1.,0.,0.));
#443=DIRECTION('',(-1.,0.,0.));
#444=DIRECTION('',(0.,0.,1.));
#445=DIRECTION('',(1.,0.,0.));
#446=DIRECTION('',(0.,0.,1.));
#447=DIRECTION('',(1.,0.,0.));
#448=DIRECTION('',(0.,0.,1.));
#449=DIRECTION('',(1.,0.,0.));
#450=CARTESIAN_POINT('',(0.,0.,0.));
#451=CARTESIAN_POINT('',(-200.,100.,5.));
#452=CARTESIAN_POINT('',(-200.,100.,0.));
#453=CARTESIAN_POINT('',(-200.,100.,0.));
#454=CARTESIAN_POINT('',(-200.,-100.,0.));
#455=CARTESIAN_POINT('',(-200.,-100.,5.));
#456=CARTESIAN_POINT('',(-200.,-100.,5.));
#457=CARTESIAN_POINT('',(-200.,100.,5.));
#458=CARTESIAN_POINT('',(-200.,100.,5.));
#459=CARTESIAN_POINT('',(-200.,100.,5.));
#460=CARTESIAN_POINT('',(-200.,-100.,5.));
#461=CARTESIAN_POINT('',(-200.,-100.,0.));
#462=CARTESIAN_POINT('',(200.,-100.,0.));
#463=CARTESIAN_POINT('',(200.,-100.,5.));
#464=CARTESIAN_POINT('',(200.,-100.,5.));
#465=CARTESIAN_POINT('',(-200.,-100.,5.));
#466=CARTESIAN_POINT('',(200.,-100.,5.));
#467=CARTESIAN_POINT('',(200.,-100.,0.));
#468=CARTESIAN_POINT('',(200.,100.,0.));
#469=CARTESIAN_POINT('',(200.,100.,5.));
#470=CARTESIAN_POINT('',(200.,100.,5.));
#471=CARTESIAN_POINT('',(200.,-100.,5.));
#472=CARTESIAN_POINT('',(200.,100.,5.));
#473=CARTESIAN_POINT('',(200.,100.,0.));
#474=CARTESIAN_POINT('',(200.,100.,5.));
#475=CARTESIAN_POINT('',(0.,0.,5.));
#476=CARTESIAN_POINT('',(0.,0.,0.));
#477=CARTESIAN_POINT('',(0.,0.,0.));
#478=CARTESIAN_POINT('',(-200.,100.,0.15));
#479=CARTESIAN_POINT('',(-200.,100.,0.));
#480=CARTESIAN_POINT('',(-200.,100.,0.));
#481=CARTESIAN_POINT('',(-200.,-100.,0.));
#482=CARTESIAN_POINT('',(-200.,-100.,0.15));
#483=CARTESIAN_POINT('',(-200.,-100.,0.15));
#484=CARTESIAN_POINT('',(-200.,100.,0.15));
#485=CARTESIAN_POINT('',(-200.,100.,0.15));
#486=CARTESIAN_POINT('',(-200.,100.,0.15));
#487=CARTESIAN_POINT('',(-200.,-100.,0.15));
#488=CARTESIAN_POINT('',(-200.,-100.,0.));
#489=CARTESIAN_POINT('',(200.,-100.,0.));
#490=CARTESIAN_POINT('',(200.,-100.,0.15));
#491=CARTESIAN_POINT('',(200.,-100.,0.15));
#492=CARTESIAN_POINT('',(-200.,-100.,0.15));
#493=CARTESIAN_POINT('',(200.,-100.,0.15));
#494=CARTESIAN_POINT('',(200.,-100.,0.));
#495=CARTESIAN_POINT('',(200.,100.,0.));
#496=CARTESIAN_POINT('',(200.,100.,0.15));
#497=CARTESIAN_POINT('',(200.,100.,0.15));
#498=CARTESIAN_POINT('',(200.,-100.,0.15));
#499=CARTESIAN_POINT('',(200.,100.,0.15));
#500=CARTESIAN_POINT('',(200.,100.,0.));
#501=CARTESIAN_POINT('',(200.,100.,0.15));
#502=CARTESIAN_POINT('',(0.,0.,0.15));
#503=CARTESIAN_POINT('',(0.,0.,0.));
#504=CARTESIAN_POINT('',(-1.38777878078145E-14,0.,5.));
#505=CARTESIAN_POINT('',(-200.,100.,0.1));
#506=CARTESIAN_POINT('',(-200.,100.,0.));
#507=CARTESIAN_POINT('',(-200.,100.,0.));
#508=CARTESIAN_POINT('',(-200.,-100.,0.));
#509=CARTESIAN_POINT('',(-200.,-100.,0.1));
#510=CARTESIAN_POINT('',(-200.,-100.,0.1));
#511=CARTESIAN_POINT('',(-200.,100.,0.1));
#512=CARTESIAN_POINT('',(-200.,100.,0.1));
#513=CARTESIAN_POINT('',(-200.,100.,0.1));
#514=CARTESIAN_POINT('',(-200.,-100.,0.1));
#515=CARTESIAN_POINT('',(-200.,-100.,0.));
#516=CARTESIAN_POINT('',(200.,-100.,0.));
#517=CARTESIAN_POINT('',(200.,-100.,0.1));
#518=CARTESIAN_POINT('',(200.,-100.,0.1));
#519=CARTESIAN_POINT('',(-200.,-100.,0.1));
#520=CARTESIAN_POINT('',(200.,-100.,0.1));
#521=CARTESIAN_POINT('',(200.,-100.,0.));
#522=CARTESIAN_POINT('',(200.,100.,0.));
#523=CARTESIAN_POINT('',(200.,100.,0.1));
#524=CARTESIAN_POINT('',(200.,100.,0.1));
#525=CARTESIAN_POINT('',(200.,-100.,0.1));
#526=CARTESIAN_POINT('',(200.,100.,0.1));
#527=CARTESIAN_POINT('',(200.,100.,0.));
#528=CARTESIAN_POINT('',(200.,100.,0.1));
#529=CARTESIAN_POINT('',(0.,0.,0.1));
#530=CARTESIAN_POINT('',(0.,0.,0.));
#531=CARTESIAN_POINT('',(0.,0.,-0.1));
#532=MECHANICAL_DESIGN_GEOMETRIC_PRESENTATION_REPRESENTATION('',(#315,#316,
#317),#533);
#533=(
GEOMETRIC_REPRESENTATION_CONTEXT(3)
GLOBAL_UNCERTAINTY_ASSIGNED_CONTEXT((#537))
GLOBAL_UNIT_ASSIGNED_CONTEXT((#543,#542,#541))
REPRESENTATION_CONTEXT('40001050','TOP_LEVEL_ASSEMBLY_PART')
);
#534=(
GEOMETRIC_REPRESENTATION_CONTEXT(3)
GLOBAL_UNCERTAINTY_ASSIGNED_CONTEXT((#538))
GLOBAL_UNIT_ASSIGNED_CONTEXT((#543,#542,#541))
REPRESENTATION_CONTEXT('Silicone with ceramic particles',
'COMPONENT_PART')
);
#535=(
GEOMETRIC_REPRESENTATION_CONTEXT(3)
GLOBAL_UNCERTAINTY_ASSIGNED_CONTEXT((#539))
GLOBAL_UNIT_ASSIGNED_CONTEXT((#543,#542,#541))
REPRESENTATION_CONTEXT('Top PE film','COMPONENT_PART')
);
#536=(
GEOMETRIC_REPRESENTATION_CONTEXT(3)
GLOBAL_UNCERTAINTY_ASSIGNED_CONTEXT((#540))
GLOBAL_UNIT_ASSIGNED_CONTEXT((#543,#542,#541))
REPRESENTATION_CONTEXT('Bottom PET film','COMPONENT_PART')
);
#537=UNCERTAINTY_MEASURE_WITH_UNIT(LENGTH_MEASURE(0.005),#543,
'DISTANCE_ACCURACY_VALUE','Maximum Tolerance applied to model');
#538=UNCERTAINTY_MEASURE_WITH_UNIT(LENGTH_MEASURE(0.005),#543,
'DISTANCE_ACCURACY_VALUE','Maximum Tolerance applied to model');
#539=UNCERTAINTY_MEASURE_WITH_UNIT(LENGTH_MEASURE(0.005),#543,
'DISTANCE_ACCURACY_VALUE','Maximum Tolerance applied to model');
#540=UNCERTAINTY_MEASURE_WITH_UNIT(LENGTH_MEASURE(0.005),#543,
'DISTANCE_ACCURACY_VALUE','Maximum Tolerance applied to model');
#541=(
NAMED_UNIT(*)
SI_UNIT($,.STERADIAN.)
SOLID_ANGLE_UNIT()
);
#542=(
NAMED_UNIT(*)
PLANE_ANGLE_UNIT()
SI_UNIT($,.RADIAN.)
);
#543=(
LENGTH_UNIT()
NAMED_UNIT(*)
SI_UNIT(.MILLI.,.METRE.)
);
#544=PRODUCT_DEFINITION_SHAPE('','',#551);
#545=PRODUCT_DEFINITION_SHAPE('','',#552);
#546=PRODUCT_DEFINITION_SHAPE(' ','NAUO PRDDFN',#21);
#547=PRODUCT_DEFINITION_SHAPE('','',#553);
#548=PRODUCT_DEFINITION_SHAPE(' ','NAUO PRDDFN',#22);
#549=PRODUCT_DEFINITION_SHAPE('','',#554);
#550=PRODUCT_DEFINITION_SHAPE(' ','NAUO PRDDFN',#23);
#551=PRODUCT_DEFINITION('','',#559,#555);
#552=PRODUCT_DEFINITION('','',#560,#556);
#553=PRODUCT_DEFINITION('','',#561,#557);
#554=PRODUCT_DEFINITION('','',#562,#558);
#555=PRODUCT_DEFINITION_CONTEXT('',#580,'design');
#556=PRODUCT_DEFINITION_CONTEXT('',#580,'design');
#557=PRODUCT_DEFINITION_CONTEXT('',#580,'design');
#558=PRODUCT_DEFINITION_CONTEXT('',#580,'design');
#559=PRODUCT_DEFINITION_FORMATION_WITH_SPECIFIED_SOURCE('','',#567,
 .NOT_KNOWN.);
#560=PRODUCT_DEFINITION_FORMATION_WITH_SPECIFIED_SOURCE('','',#568,
 .NOT_KNOWN.);
#561=PRODUCT_DEFINITION_FORMATION_WITH_SPECIFIED_SOURCE('','',#569,
 .NOT_KNOWN.);
#562=PRODUCT_DEFINITION_FORMATION_WITH_SPECIFIED_SOURCE('','',#570,
 .NOT_KNOWN.);
#563=PRODUCT_RELATED_PRODUCT_CATEGORY('','',(#567));
#564=PRODUCT_RELATED_PRODUCT_CATEGORY('','',(#568));
#565=PRODUCT_RELATED_PRODUCT_CATEGORY('','',(#569));
#566=PRODUCT_RELATED_PRODUCT_CATEGORY('','',(#570));
#567=PRODUCT('40001050','40001050','40001050',(#575));
#568=PRODUCT('Silicone with ceramic particles',
'Silicone with ceramic particles','Silicone with ceramic particles',(#576));
#569=PRODUCT('Top PE film','Top PE film','Top PE film',(#577));
#570=PRODUCT('Bottom PET film','Bottom PET film','Bottom PET film',(#578));
#571=PRODUCT_CATEGORY('','');
#572=PRODUCT_CATEGORY('','');
#573=PRODUCT_CATEGORY('','');
#574=PRODUCT_CATEGORY('','');
#575=PRODUCT_CONTEXT('',#580,'mechanical');
#576=PRODUCT_CONTEXT('',#580,'mechanical');
#577=PRODUCT_CONTEXT('',#580,'mechanical');
#578=PRODUCT_CONTEXT('',#580,'mechanical');
#579=APPLICATION_PROTOCOL_DEFINITION('international standard',
'automotive_design',2010,#580);
#580=APPLICATION_CONTEXT(
'core data for automotive mechanical design processes');
ENDSEC;
END-ISO-10303-21;
