ISO-10303-21;
HEADER;
/* Generated by software containing ST-Developer
 * from STEP Tools, Inc. (www.steptools.com) 
 */
/* OPTION: strings as raw bytes, not using required /X/ escapes */

FILE_DESCRIPTION(
/* description */ ('Unknown'),
/* implementation_level */ '2;1');

FILE_NAME(
/* name */ '331051472057',
/* time_stamp */ '2016-02-09T12:42:57+01:00',
/* author */ ('Unknown'),
/* organization */ ('Unknown'),
/* preprocessor_version */ 'ST-DEVELOPER v16.7',
/* originating_system */ 'DEX',
/* authorisation */ $);

FILE_SCHEMA (('AUTOMOTIVE_DESIGN {1 0 10303 214 3 1 1}'));
ENDSEC;

DATA;
#10=PROPERTY_DEFINITION_REPRESENTATION(#14,#12);
#11=PROPERTY_DEFINITION_REPRESENTATION(#15,#13);
#12=REPRESENTATION('',(#16),#627);
#13=REPRESENTATION('',(#17),#627);
#14=PROPERTY_DEFINITION('pmi validation property','',#632);
#15=PROPERTY_DEFINITION('pmi validation property','',#632);
#16=VALUE_REPRESENTATION_ITEM('number of annotations',COUNT_MEASURE(0.));
#17=VALUE_REPRESENTATION_ITEM('number of views',COUNT_MEASURE(0.));
#18=SHAPE_REPRESENTATION_RELATIONSHIP('','',#383,#19);
#19=ADVANCED_BREP_SHAPE_REPRESENTATION('',(#381),#627);
#20=CYLINDRICAL_SURFACE('',#404,0.399999999990001);
#21=CYLINDRICAL_SURFACE('',#405,0.39999999999);
#22=CYLINDRICAL_SURFACE('',#413,0.299999999989999);
#23=CYLINDRICAL_SURFACE('',#414,0.39999999999);
#24=CYLINDRICAL_SURFACE('',#415,0.5);
#25=CYLINDRICAL_SURFACE('',#416,0.2);
#26=CYLINDRICAL_SURFACE('',#417,0.1);
#27=CIRCLE('',#386,0.2);
#28=CIRCLE('',#387,0.5);
#29=CIRCLE('',#388,0.39999999999);
#30=CIRCLE('',#389,0.1);
#31=CIRCLE('',#390,0.299999999989999);
#32=CIRCLE('',#391,0.39999999999);
#33=CIRCLE('',#394,0.399999999990001);
#34=CIRCLE('',#403,0.399999999990001);
#35=CIRCLE('',#406,0.39999999999);
#36=CIRCLE('',#408,0.2);
#37=CIRCLE('',#409,0.39999999999);
#38=CIRCLE('',#410,0.299999999989999);
#39=CIRCLE('',#411,0.1);
#40=CIRCLE('',#412,0.5);
#41=ORIENTED_EDGE('',*,*,#141,.F.);
#42=ORIENTED_EDGE('',*,*,#142,.T.);
#43=ORIENTED_EDGE('',*,*,#143,.F.);
#44=ORIENTED_EDGE('',*,*,#144,.T.);
#45=ORIENTED_EDGE('',*,*,#145,.F.);
#46=ORIENTED_EDGE('',*,*,#146,.F.);
#47=ORIENTED_EDGE('',*,*,#147,.F.);
#48=ORIENTED_EDGE('',*,*,#148,.F.);
#49=ORIENTED_EDGE('',*,*,#149,.F.);
#50=ORIENTED_EDGE('',*,*,#150,.T.);
#51=ORIENTED_EDGE('',*,*,#151,.F.);
#52=ORIENTED_EDGE('',*,*,#152,.F.);
#53=ORIENTED_EDGE('',*,*,#153,.F.);
#54=ORIENTED_EDGE('',*,*,#154,.F.);
#55=ORIENTED_EDGE('',*,*,#155,.F.);
#56=ORIENTED_EDGE('',*,*,#156,.T.);
#57=ORIENTED_EDGE('',*,*,#157,.F.);
#58=ORIENTED_EDGE('',*,*,#158,.T.);
#59=ORIENTED_EDGE('',*,*,#146,.T.);
#60=ORIENTED_EDGE('',*,*,#159,.T.);
#61=ORIENTED_EDGE('',*,*,#160,.T.);
#62=ORIENTED_EDGE('',*,*,#161,.T.);
#63=ORIENTED_EDGE('',*,*,#162,.T.);
#64=ORIENTED_EDGE('',*,*,#147,.T.);
#65=ORIENTED_EDGE('',*,*,#158,.F.);
#66=ORIENTED_EDGE('',*,*,#163,.T.);
#67=ORIENTED_EDGE('',*,*,#164,.T.);
#68=ORIENTED_EDGE('',*,*,#149,.T.);
#69=ORIENTED_EDGE('',*,*,#165,.T.);
#70=ORIENTED_EDGE('',*,*,#151,.T.);
#71=ORIENTED_EDGE('',*,*,#166,.T.);
#72=ORIENTED_EDGE('',*,*,#167,.T.);
#73=ORIENTED_EDGE('',*,*,#168,.T.);
#74=ORIENTED_EDGE('',*,*,#169,.T.);
#75=ORIENTED_EDGE('',*,*,#170,.T.);
#76=ORIENTED_EDGE('',*,*,#153,.T.);
#77=ORIENTED_EDGE('',*,*,#171,.T.);
#78=ORIENTED_EDGE('',*,*,#172,.T.);
#79=ORIENTED_EDGE('',*,*,#173,.T.);
#80=ORIENTED_EDGE('',*,*,#154,.T.);
#81=ORIENTED_EDGE('',*,*,#170,.F.);
#82=ORIENTED_EDGE('',*,*,#174,.T.);
#83=ORIENTED_EDGE('',*,*,#175,.T.);
#84=ORIENTED_EDGE('',*,*,#155,.T.);
#85=ORIENTED_EDGE('',*,*,#173,.F.);
#86=ORIENTED_EDGE('',*,*,#176,.T.);
#87=ORIENTED_EDGE('',*,*,#177,.T.);
#88=ORIENTED_EDGE('',*,*,#141,.T.);
#89=ORIENTED_EDGE('',*,*,#178,.T.);
#90=ORIENTED_EDGE('',*,*,#143,.T.);
#91=ORIENTED_EDGE('',*,*,#179,.T.);
#92=ORIENTED_EDGE('',*,*,#180,.T.);
#93=ORIENTED_EDGE('',*,*,#181,.T.);
#94=ORIENTED_EDGE('',*,*,#182,.T.);
#95=ORIENTED_EDGE('',*,*,#183,.T.);
#96=ORIENTED_EDGE('',*,*,#159,.F.);
#97=ORIENTED_EDGE('',*,*,#145,.T.);
#98=ORIENTED_EDGE('',*,*,#184,.T.);
#99=ORIENTED_EDGE('',*,*,#160,.F.);
#100=ORIENTED_EDGE('',*,*,#182,.F.);
#101=ORIENTED_EDGE('',*,*,#185,.T.);
#102=ORIENTED_EDGE('',*,*,#165,.F.);
#103=ORIENTED_EDGE('',*,*,#148,.T.);
#104=ORIENTED_EDGE('',*,*,#162,.F.);
#105=ORIENTED_EDGE('',*,*,#180,.F.);
#106=ORIENTED_EDGE('',*,*,#186,.T.);
#107=ORIENTED_EDGE('',*,*,#176,.F.);
#108=ORIENTED_EDGE('',*,*,#187,.T.);
#109=ORIENTED_EDGE('',*,*,#174,.F.);
#110=ORIENTED_EDGE('',*,*,#172,.F.);
#111=ORIENTED_EDGE('',*,*,#169,.F.);
#112=ORIENTED_EDGE('',*,*,#188,.T.);
#113=ORIENTED_EDGE('',*,*,#167,.F.);
#114=ORIENTED_EDGE('',*,*,#189,.T.);
#115=ORIENTED_EDGE('',*,*,#163,.F.);
#116=ORIENTED_EDGE('',*,*,#185,.F.);
#117=ORIENTED_EDGE('',*,*,#161,.F.);
#118=ORIENTED_EDGE('',*,*,#157,.T.);
#119=ORIENTED_EDGE('',*,*,#183,.F.);
#120=ORIENTED_EDGE('',*,*,#190,.T.);
#121=ORIENTED_EDGE('',*,*,#188,.F.);
#122=ORIENTED_EDGE('',*,*,#171,.F.);
#123=ORIENTED_EDGE('',*,*,#152,.T.);
#124=ORIENTED_EDGE('',*,*,#168,.F.);
#125=ORIENTED_EDGE('',*,*,#187,.F.);
#126=ORIENTED_EDGE('',*,*,#178,.F.);
#127=ORIENTED_EDGE('',*,*,#156,.F.);
#128=ORIENTED_EDGE('',*,*,#175,.F.);
#129=ORIENTED_EDGE('',*,*,#190,.F.);
#130=ORIENTED_EDGE('',*,*,#184,.F.);
#131=ORIENTED_EDGE('',*,*,#144,.F.);
#132=ORIENTED_EDGE('',*,*,#181,.F.);
#133=ORIENTED_EDGE('',*,*,#186,.F.);
#134=ORIENTED_EDGE('',*,*,#179,.F.);
#135=ORIENTED_EDGE('',*,*,#142,.F.);
#136=ORIENTED_EDGE('',*,*,#177,.F.);
#137=ORIENTED_EDGE('',*,*,#189,.F.);
#138=ORIENTED_EDGE('',*,*,#166,.F.);
#139=ORIENTED_EDGE('',*,*,#150,.F.);
#140=ORIENTED_EDGE('',*,*,#164,.F.);
#141=EDGE_CURVE('',#191,#192,#225,.T.);
#142=EDGE_CURVE('',#191,#193,#27,.F.);
#143=EDGE_CURVE('',#194,#193,#226,.T.);
#144=EDGE_CURVE('',#194,#195,#28,.F.);
#145=EDGE_CURVE('',#196,#195,#227,.T.);
#146=EDGE_CURVE('',#197,#196,#228,.T.);
#147=EDGE_CURVE('',#198,#197,#229,.T.);
#148=EDGE_CURVE('',#199,#198,#29,.F.);
#149=EDGE_CURVE('',#200,#199,#230,.T.);
#150=EDGE_CURVE('',#200,#201,#30,.T.);
#151=EDGE_CURVE('',#202,#201,#231,.T.);
#152=EDGE_CURVE('',#203,#202,#31,.F.);
#153=EDGE_CURVE('',#204,#203,#232,.T.);
#154=EDGE_CURVE('',#205,#204,#233,.T.);
#155=EDGE_CURVE('',#206,#205,#234,.T.);
#156=EDGE_CURVE('',#206,#192,#32,.F.);
#157=EDGE_CURVE('',#207,#208,#235,.T.);
#158=EDGE_CURVE('',#207,#197,#236,.T.);
#159=EDGE_CURVE('',#196,#208,#237,.T.);
#160=EDGE_CURVE('',#209,#209,#33,.F.);
#161=EDGE_CURVE('',#207,#210,#238,.T.);
#162=EDGE_CURVE('',#210,#198,#239,.F.);
#163=EDGE_CURVE('',#211,#212,#240,.T.);
#164=EDGE_CURVE('',#212,#200,#241,.T.);
#165=EDGE_CURVE('',#199,#211,#242,.T.);
#166=EDGE_CURVE('',#201,#213,#243,.F.);
#167=EDGE_CURVE('',#213,#214,#244,.T.);
#168=EDGE_CURVE('',#214,#202,#245,.F.);
#169=EDGE_CURVE('',#215,#216,#246,.T.);
#170=EDGE_CURVE('',#216,#204,#247,.T.);
#171=EDGE_CURVE('',#203,#215,#248,.T.);
#172=EDGE_CURVE('',#216,#217,#249,.T.);
#173=EDGE_CURVE('',#217,#205,#250,.T.);
#174=EDGE_CURVE('',#217,#218,#251,.T.);
#175=EDGE_CURVE('',#218,#206,#252,.F.);
#176=EDGE_CURVE('',#219,#220,#253,.T.);
#177=EDGE_CURVE('',#220,#191,#254,.T.);
#178=EDGE_CURVE('',#192,#219,#255,.T.);
#179=EDGE_CURVE('',#193,#221,#256,.F.);
#180=EDGE_CURVE('',#221,#222,#257,.T.);
#181=EDGE_CURVE('',#222,#194,#258,.F.);
#182=EDGE_CURVE('',#223,#223,#34,.T.);
#183=EDGE_CURVE('',#224,#208,#259,.T.);
#184=EDGE_CURVE('',#195,#224,#260,.T.);
#185=EDGE_CURVE('',#210,#211,#35,.T.);
#186=EDGE_CURVE('',#221,#220,#36,.T.);
#187=EDGE_CURVE('',#219,#218,#37,.T.);
#188=EDGE_CURVE('',#215,#214,#38,.F.);
#189=EDGE_CURVE('',#213,#212,#39,.F.);
#190=EDGE_CURVE('',#224,#222,#40,.T.);
#191=VERTEX_POINT('',#525);
#192=VERTEX_POINT('',#526);
#193=VERTEX_POINT('',#528);
#194=VERTEX_POINT('',#530);
#195=VERTEX_POINT('',#532);
#196=VERTEX_POINT('',#534);
#197=VERTEX_POINT('',#536);
#198=VERTEX_POINT('',#538);
#199=VERTEX_POINT('',#540);
#200=VERTEX_POINT('',#542);
#201=VERTEX_POINT('',#544);
#202=VERTEX_POINT('',#546);
#203=VERTEX_POINT('',#548);
#204=VERTEX_POINT('',#550);
#205=VERTEX_POINT('',#552);
#206=VERTEX_POINT('',#554);
#207=VERTEX_POINT('',#558);
#208=VERTEX_POINT('',#559);
#209=VERTEX_POINT('',#564);
#210=VERTEX_POINT('',#566);
#211=VERTEX_POINT('',#570);
#212=VERTEX_POINT('',#571);
#213=VERTEX_POINT('',#576);
#214=VERTEX_POINT('',#578);
#215=VERTEX_POINT('',#582);
#216=VERTEX_POINT('',#583);
#217=VERTEX_POINT('',#588);
#218=VERTEX_POINT('',#592);
#219=VERTEX_POINT('',#596);
#220=VERTEX_POINT('',#597);
#221=VERTEX_POINT('',#602);
#222=VERTEX_POINT('',#604);
#223=VERTEX_POINT('',#608);
#224=VERTEX_POINT('',#610);
#225=LINE('',#524,#261);
#226=LINE('',#529,#262);
#227=LINE('',#533,#263);
#228=LINE('',#535,#264);
#229=LINE('',#537,#265);
#230=LINE('',#541,#266);
#231=LINE('',#545,#267);
#232=LINE('',#549,#268);
#233=LINE('',#551,#269);
#234=LINE('',#553,#270);
#235=LINE('',#557,#271);
#236=LINE('',#560,#272);
#237=LINE('',#561,#273);
#238=LINE('',#565,#274);
#239=LINE('',#567,#275);
#240=LINE('',#569,#276);
#241=LINE('',#572,#277);
#242=LINE('',#573,#278);
#243=LINE('',#575,#279);
#244=LINE('',#577,#280);
#245=LINE('',#579,#281);
#246=LINE('',#581,#282);
#247=LINE('',#584,#283);
#248=LINE('',#585,#284);
#249=LINE('',#587,#285);
#250=LINE('',#589,#286);
#251=LINE('',#591,#287);
#252=LINE('',#593,#288);
#253=LINE('',#595,#289);
#254=LINE('',#598,#290);
#255=LINE('',#599,#291);
#256=LINE('',#601,#292);
#257=LINE('',#603,#293);
#258=LINE('',#605,#294);
#259=LINE('',#609,#295);
#260=LINE('',#611,#296);
#261=VECTOR('',#422,1000.);
#262=VECTOR('',#425,1000.);
#263=VECTOR('',#428,1000.);
#264=VECTOR('',#429,1000.);
#265=VECTOR('',#430,1000.);
#266=VECTOR('',#433,1000.);
#267=VECTOR('',#436,1000.);
#268=VECTOR('',#439,1000.);
#269=VECTOR('',#440,1000.);
#270=VECTOR('',#441,1000.);
#271=VECTOR('',#446,1000.);
#272=VECTOR('',#447,1000.);
#273=VECTOR('',#448,1000.);
#274=VECTOR('',#453,1000.);
#275=VECTOR('',#454,1000.);
#276=VECTOR('',#457,1000.);
#277=VECTOR('',#458,1000.);
#278=VECTOR('',#459,1000.);
#279=VECTOR('',#462,1000.);
#280=VECTOR('',#463,1000.);
#281=VECTOR('',#464,1000.);
#282=VECTOR('',#467,1000.);
#283=VECTOR('',#468,1000.);
#284=VECTOR('',#469,1000.);
#285=VECTOR('',#472,1000.);
#286=VECTOR('',#473,1000.);
#287=VECTOR('',#476,1000.);
#288=VECTOR('',#477,1000.);
#289=VECTOR('',#480,1000.);
#290=VECTOR('',#481,1000.);
#291=VECTOR('',#482,1000.);
#292=VECTOR('',#485,1000.);
#293=VECTOR('',#486,1000.);
#294=VECTOR('',#487,1000.);
#295=VECTOR('',#492,1000.);
#296=VECTOR('',#493,1000.);
#297=EDGE_LOOP('',(#41,#42,#43,#44,#45,#46,#47,#48,#49,#50,#51,#52,#53,
#54,#55,#56));
#298=EDGE_LOOP('',(#57,#58,#59,#60));
#299=EDGE_LOOP('',(#61));
#300=EDGE_LOOP('',(#62,#63,#64,#65));
#301=EDGE_LOOP('',(#66,#67,#68,#69));
#302=EDGE_LOOP('',(#70,#71,#72,#73));
#303=EDGE_LOOP('',(#74,#75,#76,#77));
#304=EDGE_LOOP('',(#78,#79,#80,#81));
#305=EDGE_LOOP('',(#82,#83,#84,#85));
#306=EDGE_LOOP('',(#86,#87,#88,#89));
#307=EDGE_LOOP('',(#90,#91,#92,#93));
#308=EDGE_LOOP('',(#94));
#309=EDGE_LOOP('',(#95,#96,#97,#98));
#310=EDGE_LOOP('',(#99));
#311=EDGE_LOOP('',(#100));
#312=EDGE_LOOP('',(#101,#102,#103,#104));
#313=EDGE_LOOP('',(#105,#106,#107,#108,#109,#110,#111,#112,#113,#114,#115,
#116,#117,#118,#119,#120));
#314=EDGE_LOOP('',(#121,#122,#123,#124));
#315=EDGE_LOOP('',(#125,#126,#127,#128));
#316=EDGE_LOOP('',(#129,#130,#131,#132));
#317=EDGE_LOOP('',(#133,#134,#135,#136));
#318=EDGE_LOOP('',(#137,#138,#139,#140));
#319=FACE_BOUND('',#297,.T.);
#320=FACE_BOUND('',#298,.T.);
#321=FACE_BOUND('',#299,.T.);
#322=FACE_BOUND('',#300,.T.);
#323=FACE_BOUND('',#301,.T.);
#324=FACE_BOUND('',#302,.T.);
#325=FACE_BOUND('',#303,.T.);
#326=FACE_BOUND('',#304,.T.);
#327=FACE_BOUND('',#305,.T.);
#328=FACE_BOUND('',#306,.T.);
#329=FACE_BOUND('',#307,.T.);
#330=FACE_BOUND('',#308,.T.);
#331=FACE_BOUND('',#309,.T.);
#332=FACE_BOUND('',#310,.T.);
#333=FACE_BOUND('',#311,.T.);
#334=FACE_BOUND('',#312,.T.);
#335=FACE_BOUND('',#313,.T.);
#336=FACE_BOUND('',#314,.T.);
#337=FACE_BOUND('',#315,.T.);
#338=FACE_BOUND('',#316,.T.);
#339=FACE_BOUND('',#317,.T.);
#340=FACE_BOUND('',#318,.T.);
#341=PLANE('',#385);
#342=PLANE('',#392);
#343=PLANE('',#393);
#344=PLANE('',#395);
#345=PLANE('',#396);
#346=PLANE('',#397);
#347=PLANE('',#398);
#348=PLANE('',#399);
#349=PLANE('',#400);
#350=PLANE('',#401);
#351=PLANE('',#402);
#352=PLANE('',#407);
#353=ADVANCED_FACE(' TRM_SRF',(#319),#341,.F.);
#354=ADVANCED_FACE(' TRM_SRF',(#320),#342,.T.);
#355=ADVANCED_FACE(' TRM_SRF',(#321,#322),#343,.T.);
#356=ADVANCED_FACE(' TRM_SRF',(#323),#344,.T.);
#357=ADVANCED_FACE(' TRM_SRF',(#324),#345,.T.);
#358=ADVANCED_FACE(' TRM_SRF',(#325),#346,.T.);
#359=ADVANCED_FACE(' TRM_SRF',(#326),#347,.T.);
#360=ADVANCED_FACE(' TRM_SRF',(#327),#348,.T.);
#361=ADVANCED_FACE(' TRM_SRF',(#328),#349,.T.);
#362=ADVANCED_FACE(' TRM_SRF',(#329),#350,.T.);
#363=ADVANCED_FACE(' TRM_SRF',(#330,#331),#351,.T.);
#364=ADVANCED_FACE(' TRM_SRF',(#332,#333),#20,.F.);
#365=ADVANCED_FACE(' TRM_SRF',(#334),#21,.F.);
#366=ADVANCED_FACE(' TRM_SRF',(#335),#352,.T.);
#367=ADVANCED_FACE(' TRM_SRF',(#336),#22,.F.);
#368=ADVANCED_FACE(' TRM_SRF',(#337),#23,.T.);
#369=ADVANCED_FACE(' TRM_SRF',(#338),#24,.T.);
#370=ADVANCED_FACE('',(#339),#25,.T.);
#371=ADVANCED_FACE('',(#340),#26,.F.);
#372=CLOSED_SHELL('',(#353,#354,#355,#356,#357,#358,#359,#360,#361,#362,
#363,#364,#365,#366,#367,#368,#369,#370,#371));
#373=STYLED_ITEM('',(#374),#381);
#374=PRESENTATION_STYLE_ASSIGNMENT((#375));
#375=SURFACE_STYLE_USAGE(.BOTH.,#376);
#376=SURFACE_SIDE_STYLE('',(#377));
#377=SURFACE_STYLE_FILL_AREA(#378);
#378=FILL_AREA_STYLE('',(#379));
#379=FILL_AREA_STYLE_COLOUR('',#380);
#380=COLOUR_RGB('',0.87058824300766,0.633254885673523,0.172549024224281);
#381=MANIFOLD_SOLID_BREP(' TRM_SRF',#372);
#382=SHAPE_DEFINITION_REPRESENTATION(#632,#383);
#383=SHAPE_REPRESENTATION('331051472057',(#384),#627);
#384=AXIS2_PLACEMENT_3D('',#522,#418,#419);
#385=AXIS2_PLACEMENT_3D('',#523,#420,#421);
#386=AXIS2_PLACEMENT_3D('',#527,#423,#424);
#387=AXIS2_PLACEMENT_3D('',#531,#426,#427);
#388=AXIS2_PLACEMENT_3D('',#539,#431,#432);
#389=AXIS2_PLACEMENT_3D('',#543,#434,#435);
#390=AXIS2_PLACEMENT_3D('',#547,#437,#438);
#391=AXIS2_PLACEMENT_3D('',#555,#442,#443);
#392=AXIS2_PLACEMENT_3D('',#556,#444,#445);
#393=AXIS2_PLACEMENT_3D('',#562,#449,#450);
#394=AXIS2_PLACEMENT_3D('',#563,#451,#452);
#395=AXIS2_PLACEMENT_3D('',#568,#455,#456);
#396=AXIS2_PLACEMENT_3D('',#574,#460,#461);
#397=AXIS2_PLACEMENT_3D('',#580,#465,#466);
#398=AXIS2_PLACEMENT_3D('',#586,#470,#471);
#399=AXIS2_PLACEMENT_3D('',#590,#474,#475);
#400=AXIS2_PLACEMENT_3D('',#594,#478,#479);
#401=AXIS2_PLACEMENT_3D('',#600,#483,#484);
#402=AXIS2_PLACEMENT_3D('',#606,#488,#489);
#403=AXIS2_PLACEMENT_3D('',#607,#490,#491);
#404=AXIS2_PLACEMENT_3D('',#612,#494,#495);
#405=AXIS2_PLACEMENT_3D('',#613,#496,#497);
#406=AXIS2_PLACEMENT_3D('',#614,#498,#499);
#407=AXIS2_PLACEMENT_3D('',#615,#500,#501);
#408=AXIS2_PLACEMENT_3D('',#616,#502,#503);
#409=AXIS2_PLACEMENT_3D('',#617,#504,#505);
#410=AXIS2_PLACEMENT_3D('',#618,#506,#507);
#411=AXIS2_PLACEMENT_3D('',#619,#508,#509);
#412=AXIS2_PLACEMENT_3D('',#620,#510,#511);
#413=AXIS2_PLACEMENT_3D('',#621,#512,#513);
#414=AXIS2_PLACEMENT_3D('',#622,#514,#515);
#415=AXIS2_PLACEMENT_3D('',#623,#516,#517);
#416=AXIS2_PLACEMENT_3D('',#624,#518,#519);
#417=AXIS2_PLACEMENT_3D('',#625,#520,#521);
#418=DIRECTION('',(0.,0.,1.,0.));
#419=DIRECTION('',(1.,0.,0.,0.));
#420=DIRECTION('',(1.,0.,0.));
#421=DIRECTION('',(0.,-1.,0.));
#422=DIRECTION('',(0.,1.,0.));
#423=DIRECTION('',(1.,0.,0.));
#424=DIRECTION('',(0.,0.,-1.));
#425=DIRECTION('',(0.,0.390731128489343,-0.920504853452411));
#426=DIRECTION('',(1.,0.,0.));
#427=DIRECTION('',(0.,0.,-1.));
#428=DIRECTION('',(0.,-1.,0.));
#429=DIRECTION('',(0.,0.,1.));
#430=DIRECTION('',(0.,1.,0.));
#431=DIRECTION('',(1.,0.,0.));
#432=DIRECTION('',(0.,0.,-1.));
#433=DIRECTION('',(0.,-0.390731128489335,0.920504853452415));
#434=DIRECTION('',(1.,0.,0.));
#435=DIRECTION('',(0.,0.,-1.));
#436=DIRECTION('',(0.,-1.,0.));
#437=DIRECTION('',(1.,0.,0.));
#438=DIRECTION('',(0.,0.,-1.));
#439=DIRECTION('',(0.,0.390731128489455,-0.920504853452363));
#440=DIRECTION('',(0.,-0.920504853453242,-0.390731128487387));
#441=DIRECTION('',(0.,-0.390731128489157,0.92050485345249));
#442=DIRECTION('',(1.,0.,0.));
#443=DIRECTION('',(0.,0.,-1.));
#444=DIRECTION('',(0.,1.,0.));
#445=DIRECTION('',(0.,0.,1.));
#446=DIRECTION('',(0.,0.,1.));
#447=DIRECTION('',(-1.,0.,0.));
#448=DIRECTION('',(1.,0.,0.));
#449=DIRECTION('',(0.,0.,-1.));
#450=DIRECTION('',(0.,1.,0.));
#451=DIRECTION('',(0.,0.,-1.));
#452=DIRECTION('',(-1.,0.,0.));
#453=DIRECTION('',(0.,-1.,0.));
#454=DIRECTION('',(1.,0.,0.));
#455=DIRECTION('',(0.,0.920504853452415,0.390731128489335));
#456=DIRECTION('',(0.,-0.390731128489335,0.920504853452415));
#457=DIRECTION('',(0.,0.390731128489335,-0.920504853452415));
#458=DIRECTION('',(-1.,0.,0.));
#459=DIRECTION('',(1.,0.,0.));
#460=DIRECTION('',(0.,0.,1.));
#461=DIRECTION('',(0.,-1.,0.));
#462=DIRECTION('',(-1.,0.,0.));
#463=DIRECTION('',(0.,1.,0.));
#464=DIRECTION('',(1.,0.,0.));
#465=DIRECTION('',(0.,-0.920504853452363,-0.390731128489455));
#466=DIRECTION('',(0.,0.390731128489455,-0.920504853452363));
#467=DIRECTION('',(0.,-0.390731128489455,0.920504853452363));
#468=DIRECTION('',(-1.,0.,0.));
#469=DIRECTION('',(1.,0.,0.));
#470=DIRECTION('',(0.,-0.390731128487387,0.920504853453242));
#471=DIRECTION('',(0.,-0.920504853453242,-0.390731128487387));
#472=DIRECTION('',(0.,0.920504853453242,0.390731128487387));
#473=DIRECTION('',(-1.,0.,0.));
#474=DIRECTION('',(0.,0.92050485345249,0.390731128489157));
#475=DIRECTION('',(0.,-0.390731128489157,0.92050485345249));
#476=DIRECTION('',(0.,0.390731128489157,-0.92050485345249));
#477=DIRECTION('',(1.,0.,0.));
#478=DIRECTION('',(0.,0.,-1.));
#479=DIRECTION('',(0.,1.,0.));
#480=DIRECTION('',(0.,-1.,0.));
#481=DIRECTION('',(-1.,0.,0.));
#482=DIRECTION('',(1.,0.,0.));
#483=DIRECTION('',(0.,-0.920504853452411,-0.390731128489343));
#484=DIRECTION('',(0.,0.390731128489343,-0.920504853452411));
#485=DIRECTION('',(-1.,0.,0.));
#486=DIRECTION('',(0.,-0.390731128489343,0.920504853452411));
#487=DIRECTION('',(1.,0.,0.));
#488=DIRECTION('',(0.,0.,1.));
#489=DIRECTION('',(0.,-1.,0.));
#490=DIRECTION('',(0.,0.,-1.));
#491=DIRECTION('',(-1.,0.,0.));
#492=DIRECTION('',(0.,1.,0.));
#493=DIRECTION('',(1.,0.,0.));
#494=DIRECTION('',(0.,0.,-1.));
#495=DIRECTION('',(-1.,0.,0.));
#496=DIRECTION('',(1.,0.,0.));
#497=DIRECTION('',(0.,0.,-1.));
#498=DIRECTION('',(1.,0.,0.));
#499=DIRECTION('',(0.,0.,-1.));
#500=DIRECTION('',(1.,0.,0.));
#501=DIRECTION('',(0.,-1.,0.));
#502=DIRECTION('',(1.,0.,0.));
#503=DIRECTION('',(0.,0.,-1.));
#504=DIRECTION('',(1.,0.,0.));
#505=DIRECTION('',(0.,0.,-1.));
#506=DIRECTION('',(1.,0.,0.));
#507=DIRECTION('',(0.,0.,-1.));
#508=DIRECTION('',(1.,0.,0.));
#509=DIRECTION('',(0.,0.,-1.));
#510=DIRECTION('',(1.,0.,0.));
#511=DIRECTION('',(0.,0.,-1.));
#512=DIRECTION('',(1.,0.,0.));
#513=DIRECTION('',(0.,0.,-1.));
#514=DIRECTION('',(1.,0.,0.));
#515=DIRECTION('',(0.,0.,-1.));
#516=DIRECTION('',(1.,0.,0.));
#517=DIRECTION('',(0.,0.,-1.));
#518=DIRECTION('',(-1.,0.,0.));
#519=DIRECTION('',(0.,0.,1.));
#520=DIRECTION('',(1.,0.,0.));
#521=DIRECTION('',(0.,0.,-1.));
#522=CARTESIAN_POINT('',(0.,0.,0.));
#523=CARTESIAN_POINT('',(-1.,4.794001819439,0.114));
#524=CARTESIAN_POINT('',(-1.,4.794001819439,-5.7));
#525=CARTESIAN_POINT('',(-1.,2.29646596782689,-5.7));
#526=CARTESIAN_POINT('',(-1.,4.26408885559202,-5.7));
#527=CARTESIAN_POINT('',(-1.,2.29646596782689,-5.5));
#528=CARTESIAN_POINT('',(-1.,2.11236499713641,-5.57814622569787));
#529=CARTESIAN_POINT('',(-1.,0.474479010969817,-1.71952865023854));
#530=CARTESIAN_POINT('',(-1.,0.0397475732757323,-0.695365564249184));
#531=CARTESIAN_POINT('',(-1.,0.5,-0.5));
#532=CARTESIAN_POINT('',(-1.,0.499999999994923,0.));
#533=CARTESIAN_POINT('',(-1.,4.794001819439,0.));
#534=CARTESIAN_POINT('',(-1.,4.7,0.));
#535=CARTESIAN_POINT('',(-1.,4.7,0.114));
#536=CARTESIAN_POINT('',(-1.,4.7,-0.1));
#537=CARTESIAN_POINT('',(-1.,4.794001819439,-0.1));
#538=CARTESIAN_POINT('',(-1.,0.499999999994938,-0.1));
#539=CARTESIAN_POINT('',(-1.,0.5,-0.5));
#540=CARTESIAN_POINT('',(-1.,0.131798058620978,-0.656292451400265));
#541=CARTESIAN_POINT('',(-1.,0.566529496315029,-1.68045553738957));
#542=CARTESIAN_POINT('',(-1.,2.20441548248159,-5.53907311284894));
#543=CARTESIAN_POINT('',(-1.,2.29646596782684,-5.5));
#544=CARTESIAN_POINT('',(-1.,2.29646596782684,-5.6));
#545=CARTESIAN_POINT('',(-1.,4.794001819439,-5.6));
#546=CARTESIAN_POINT('',(-1.,4.26408885559202,-5.6));
#547=CARTESIAN_POINT('',(-1.,4.264088855587,-5.3));
#548=CARTESIAN_POINT('',(-1.,4.54024031162125,-5.18278066144846));
#549=CARTESIAN_POINT('',(-1.,2.67388971605451,-0.785934195428386));
#550=CARTESIAN_POINT('',(-1.,3.92679243989478,-3.73758804153289));
#551=CARTESIAN_POINT('',(-1.,6.04690454327466,-2.83765384611209));
#552=CARTESIAN_POINT('',(-1.,4.0188429252404,-3.69851492868403));
#553=CARTESIAN_POINT('',(-1.,2.76594020140071,-0.746861082578251));
#554=CARTESIAN_POINT('',(-1.,4.63229079696636,-5.14370754859968));
#555=CARTESIAN_POINT('',(-1.,4.264088855587,-5.3));
#556=CARTESIAN_POINT('',(-1.04,4.7,-0.1091845757337));
#557=CARTESIAN_POINT('',(1.,4.7,0.114));
#558=CARTESIAN_POINT('',(1.,4.7,-0.1));
#559=CARTESIAN_POINT('',(1.,4.7,0.));
#560=CARTESIAN_POINT('',(-1.04,4.7,-0.1));
#561=CARTESIAN_POINT('',(-1.04,4.7,0.));
#562=CARTESIAN_POINT('',(-1.04,0.416,-0.1));
#563=CARTESIAN_POINT('',(0.,2.35,-0.1));
#564=CARTESIAN_POINT('',(-0.399999999990001,2.35,-0.1));
#565=CARTESIAN_POINT('',(1.,0.416,-0.1));
#566=CARTESIAN_POINT('',(1.,0.499999999994938,-0.1));
#567=CARTESIAN_POINT('',(-1.04,0.499999999989876,-0.1));
#568=CARTESIAN_POINT('',(-1.04,2.272246998769,-5.698874150972));
#569=CARTESIAN_POINT('',(1.,2.272246998769,-5.698874150972));
#570=CARTESIAN_POINT('',(1.,0.131798058620979,-0.656292451400265));
#571=CARTESIAN_POINT('',(1.,2.20441548248159,-5.53907311284893));
#572=CARTESIAN_POINT('',(-1.,2.20441548248159,-5.53907311284893));
#573=CARTESIAN_POINT('',(-1.04,0.131798058622905,-0.656292451404804));
#574=CARTESIAN_POINT('',(-1.04,4.304765084465,-5.6));
#575=CARTESIAN_POINT('',(1.,2.29646596782684,-5.6));
#576=CARTESIAN_POINT('',(1.,2.29646596782684,-5.6));
#577=CARTESIAN_POINT('',(1.,4.304765084465,-5.6));
#578=CARTESIAN_POINT('',(1.,4.26408885559202,-5.6));
#579=CARTESIAN_POINT('',(-1.04,4.26408885559703,-5.6));
#580=CARTESIAN_POINT('',(-1.04,3.91452348246,-3.708684189134));
#581=CARTESIAN_POINT('',(1.,3.91452348246,-3.708684189134));
#582=CARTESIAN_POINT('',(1.,4.54024031162125,-5.18278066144846));
#583=CARTESIAN_POINT('',(1.,3.92679243989478,-3.73758804153289));
#584=CARTESIAN_POINT('',(-1.04,3.92679243989478,-3.73758804153289));
#585=CARTESIAN_POINT('',(-1.04,4.54024031161934,-5.18278066144395));
#586=CARTESIAN_POINT('',(-1.04,4.02729737178,-3.694926229043));
#587=CARTESIAN_POINT('',(1.,4.02729737178,-3.694926229043));
#588=CARTESIAN_POINT('',(1.,4.0188429252404,-3.69851492868403));
#589=CARTESIAN_POINT('',(-1.04,4.0188429252404,-3.69851492868403));
#590=CARTESIAN_POINT('',(-1.04,4.644559754403,-5.172611401003));
#591=CARTESIAN_POINT('',(1.,4.644559754403,-5.172611401003));
#592=CARTESIAN_POINT('',(1.,4.63229079696636,-5.14370754859968));
#593=CARTESIAN_POINT('',(-1.04,4.63229079696443,-5.14370754859514));
#594=CARTESIAN_POINT('',(-1.04,2.122088855587,-5.7));
#595=CARTESIAN_POINT('',(1.,2.122088855587,-5.7));
#596=CARTESIAN_POINT('',(1.,4.26408885559202,-5.7));
#597=CARTESIAN_POINT('',(1.,2.29646596782689,-5.7));
#598=CARTESIAN_POINT('',(-1.04,2.29646596782689,-5.7));
#599=CARTESIAN_POINT('',(-1.04,4.26408885559704,-5.7));
#600=CARTESIAN_POINT('',(-1.04,-0.00273925237249,-0.5952728755295));
#601=CARTESIAN_POINT('',(-1.04,2.11236499713641,-5.57814622569787));
#602=CARTESIAN_POINT('',(1.,2.11236499713641,-5.57814622569787));
#603=CARTESIAN_POINT('',(1.,-0.00273925237249,-0.5952728755295));
#604=CARTESIAN_POINT('',(1.,0.0397475732757321,-0.695365564249184));
#605=CARTESIAN_POINT('',(-1.04,0.0397475732776509,-0.695365564253704));
#606=CARTESIAN_POINT('',(-1.04,4.784,0.));
#607=CARTESIAN_POINT('',(0.,2.35,0.));
#608=CARTESIAN_POINT('',(-0.399999999990001,2.35,0.));
#609=CARTESIAN_POINT('',(1.,4.784,0.));
#610=CARTESIAN_POINT('',(1.,0.499999999994923,0.));
#611=CARTESIAN_POINT('',(-1.04,0.499999999989845,0.));
#612=CARTESIAN_POINT('',(0.,2.35,-0.0500000000000045));
#613=CARTESIAN_POINT('',(-3.12250225675825E-14,0.5,-0.5));
#614=CARTESIAN_POINT('',(1.,0.5,-0.5));
#615=CARTESIAN_POINT('',(1.,4.794001819439,0.114));
#616=CARTESIAN_POINT('',(1.,2.29646596782689,-5.5));
#617=CARTESIAN_POINT('',(1.,4.264088855587,-5.3));
#618=CARTESIAN_POINT('',(1.,4.264088855587,-5.3));
#619=CARTESIAN_POINT('',(1.,2.29646596782684,-5.5));
#620=CARTESIAN_POINT('',(1.,0.5,-0.5));
#621=CARTESIAN_POINT('',(0.,4.264088855587,-5.3));
#622=CARTESIAN_POINT('',(0.,4.264088855587,-5.3));
#623=CARTESIAN_POINT('',(-3.12250225675825E-14,0.5,-0.5));
#624=CARTESIAN_POINT('',(-1.04,2.29646596782689,-5.5));
#625=CARTESIAN_POINT('',(-1.04,2.29646596782684,-5.5));
#626=MECHANICAL_DESIGN_GEOMETRIC_PRESENTATION_REPRESENTATION('',(#373),
#627);
#627=(
GEOMETRIC_REPRESENTATION_CONTEXT(3)
GLOBAL_UNCERTAINTY_ASSIGNED_CONTEXT((#628))
GLOBAL_UNIT_ASSIGNED_CONTEXT((#631,#630,#629))
REPRESENTATION_CONTEXT('331051472057','TOP_LEVEL_ASSEMBLY_PART')
);
#628=UNCERTAINTY_MEASURE_WITH_UNIT(LENGTH_MEASURE(0.005),#631,
'DISTANCE_ACCURACY_VALUE','Maximum Tolerance applied to model');
#629=(
NAMED_UNIT(*)
SI_UNIT($,.STERADIAN.)
SOLID_ANGLE_UNIT()
);
#630=(
NAMED_UNIT(*)
PLANE_ANGLE_UNIT()
SI_UNIT($,.RADIAN.)
);
#631=(
LENGTH_UNIT()
NAMED_UNIT(*)
SI_UNIT(.MILLI.,.METRE.)
);
#632=PRODUCT_DEFINITION_SHAPE('','',#633);
#633=PRODUCT_DEFINITION('','',#635,#634);
#634=PRODUCT_DEFINITION_CONTEXT('',#641,'design');
#635=PRODUCT_DEFINITION_FORMATION_WITH_SPECIFIED_SOURCE('','',#637,
 .NOT_KNOWN.);
#636=PRODUCT_RELATED_PRODUCT_CATEGORY('','',(#637));
#637=PRODUCT('331051472057','331051472057','331051472057',(#639));
#638=PRODUCT_CATEGORY('','');
#639=PRODUCT_CONTEXT('',#641,'mechanical');
#640=APPLICATION_PROTOCOL_DEFINITION('international standard',
'automotive_design',2010,#641);
#641=APPLICATION_CONTEXT(
'core data for automotive mechanical design processes');
ENDSEC;
END-ISO-10303-21;
