ISO-10303-21;
HEADER;
/* Generated by software containing ST-Developer
 * from STEP Tools, Inc. (www.steptools.com) 
 */
/* OPTION: strings as raw bytes, not using required /X/ escapes */

FILE_DESCRIPTION(
/* description */ ('Unknown'),
/* implementation_level */ '2;1');

FILE_NAME(
/* name */ '700971300',
/* time_stamp */ '2019-02-12T09:54:53+01:00',
/* author */ ('Unknown'),
/* organization */ ('Unknown'),
/* preprocessor_version */ 'ST-DEVELOPER v16.7',
/* originating_system */ 'DEX',
/* authorisation */ $);

FILE_SCHEMA (('AUTOMOTIVE_DESIGN {1 0 10303 214 3 1 1}'));
ENDSEC;

DATA;
#10=PROPERTY_DEFINITION_REPRESENTATION(#14,#12);
#11=PROPERTY_DEFINITION_REPRESENTATION(#15,#13);
#12=REPRESENTATION('',(#16),#657);
#13=REPRESENTATION('',(#17),#657);
#14=PROPERTY_DEFINITION('pmi validation property','',#666);
#15=PROPERTY_DEFINITION('pmi validation property','',#666);
#16=VALUE_REPRESENTATION_ITEM('number of annotations',COUNT_MEASURE(0.));
#17=VALUE_REPRESENTATION_ITEM('number of views',COUNT_MEASURE(0.));
#18=VERTEX_LOOP('',#240);
#19=DEGENERATE_TOROIDAL_SURFACE('',#417,1.2,1.3,.T.);
#20=DEGENERATE_TOROIDAL_SURFACE('',#429,0.0436409395973136,0.701359060402685,
 .T.);
#21=CONTEXT_DEPENDENT_SHAPE_REPRESENTATION(#25,#668);
#22=CONTEXT_DEPENDENT_SHAPE_REPRESENTATION(#26,#670);
#23=NEXT_ASSEMBLY_USAGE_OCCURRENCE('Body','Body','Body',#671,#672,'');
#24=NEXT_ASSEMBLY_USAGE_OCCURRENCE('Pin','Pin','Pin',#671,#673,'');
#25=(
REPRESENTATION_RELATIONSHIP(' ',' ',#381,#382)
REPRESENTATION_RELATIONSHIP_WITH_TRANSFORMATION(#27)
SHAPE_REPRESENTATION_RELATIONSHIP()
);
#26=(
REPRESENTATION_RELATIONSHIP(' ',' ',#383,#382)
REPRESENTATION_RELATIONSHIP_WITH_TRANSFORMATION(#28)
SHAPE_REPRESENTATION_RELATIONSHIP()
);
#27=ITEM_DEFINED_TRANSFORMATION(' ',' ',#384,#414);
#28=ITEM_DEFINED_TRANSFORMATION(' ',' ',#384,#430);
#29=SHAPE_REPRESENTATION_RELATIONSHIP('','',#381,#31);
#30=SHAPE_REPRESENTATION_RELATIONSHIP('','',#383,#32);
#31=ADVANCED_BREP_SHAPE_REPRESENTATION('',(#376),#658);
#32=ADVANCED_BREP_SHAPE_REPRESENTATION('',(#377),#659);
#33=CONICAL_SURFACE('',#407,1.85,0.531724067258805);
#34=CONICAL_SURFACE('',#423,2.,0.558599315343561);
#35=B_SPLINE_CURVE_WITH_KNOTS('',3,(#574,#575,#576,#577,#578),
 .UNSPECIFIED.,.F.,.F.,(4,1,4),(0.000820850565038825,0.00122164148888574,
0.00162243241273266),.UNSPECIFIED.);
#36=B_SPLINE_CURVE_WITH_KNOTS('',3,(#582,#583,#584,#585,#586),
 .UNSPECIFIED.,.F.,.F.,(4,1,4),(0.00485632177440786,0.00525558278930498,
0.0056548438042021),.UNSPECIFIED.);
#37=B_SPLINE_CURVE_WITH_KNOTS('',3,(#588,#589,#590,#591,#592),
 .UNSPECIFIED.,.F.,.F.,(4,1,4),(0.000820850565038826,0.00122164148888575,
0.00162243241273266),.UNSPECIFIED.);
#38=B_SPLINE_CURVE_WITH_KNOTS('',3,(#596,#597,#598,#599,#600),
 .UNSPECIFIED.,.F.,.F.,(4,1,4),(0.00485632177440786,0.00525558278930497,
0.00565484380420209),.UNSPECIFIED.);
#39=TOROIDAL_SURFACE('',#395,0.8,0.5);
#40=TOROIDAL_SURFACE('',#397,0.8,0.5);
#41=PLANE('',#391);
#42=PLANE('',#393);
#43=PLANE('',#403);
#44=PLANE('',#405);
#45=PLANE('',#408);
#46=PLANE('',#409);
#47=PLANE('',#410);
#48=PLANE('',#411);
#49=PLANE('',#412);
#50=PLANE('',#413);
#51=PLANE('',#415);
#52=PLANE('',#421);
#53=PLANE('',#425);
#54=LINE('',#548,#70);
#55=LINE('',#552,#71);
#56=LINE('',#556,#72);
#57=LINE('',#560,#73);
#58=LINE('',#565,#74);
#59=LINE('',#566,#75);
#60=LINE('',#571,#76);
#61=LINE('',#572,#77);
#62=LINE('',#604,#78);
#63=LINE('',#608,#79);
#64=LINE('',#609,#80);
#65=LINE('',#613,#81);
#66=LINE('',#622,#82);
#67=LINE('',#623,#83);
#68=LINE('',#627,#84);
#69=LINE('',#629,#85);
#70=VECTOR('',#439,1000.);
#71=VECTOR('',#442,1000.);
#72=VECTOR('',#445,1000.);
#73=VECTOR('',#448,1000.);
#74=VECTOR('',#453,1000.);
#75=VECTOR('',#454,1000.);
#76=VECTOR('',#459,1000.);
#77=VECTOR('',#460,1000.);
#78=VECTOR('',#473,1000.);
#79=VECTOR('',#476,1000.);
#80=VECTOR('',#477,1000.);
#81=VECTOR('',#480,1000.);
#82=VECTOR('',#493,1000.);
#83=VECTOR('',#494,1000.);
#84=VECTOR('',#501,1000.);
#85=VECTOR('',#504,1000.);
#86=ORIENTED_EDGE('',*,*,#168,.F.);
#87=ORIENTED_EDGE('',*,*,#169,.T.);
#88=ORIENTED_EDGE('',*,*,#170,.T.);
#89=ORIENTED_EDGE('',*,*,#171,.F.);
#90=ORIENTED_EDGE('',*,*,#172,.T.);
#91=ORIENTED_EDGE('',*,*,#173,.T.);
#92=ORIENTED_EDGE('',*,*,#174,.T.);
#93=ORIENTED_EDGE('',*,*,#175,.F.);
#94=ORIENTED_EDGE('',*,*,#176,.T.);
#95=ORIENTED_EDGE('',*,*,#177,.T.);
#96=ORIENTED_EDGE('',*,*,#178,.T.);
#97=ORIENTED_EDGE('',*,*,#169,.F.);
#98=ORIENTED_EDGE('',*,*,#179,.T.);
#99=ORIENTED_EDGE('',*,*,#180,.T.);
#100=ORIENTED_EDGE('',*,*,#181,.T.);
#101=ORIENTED_EDGE('',*,*,#173,.F.);
#102=ORIENTED_EDGE('',*,*,#182,.T.);
#103=ORIENTED_EDGE('',*,*,#177,.F.);
#104=ORIENTED_EDGE('',*,*,#183,.T.);
#105=ORIENTED_EDGE('',*,*,#184,.T.);
#106=ORIENTED_EDGE('',*,*,#185,.T.);
#107=ORIENTED_EDGE('',*,*,#180,.F.);
#108=ORIENTED_EDGE('',*,*,#186,.T.);
#109=ORIENTED_EDGE('',*,*,#187,.T.);
#110=ORIENTED_EDGE('',*,*,#188,.T.);
#111=ORIENTED_EDGE('',*,*,#189,.T.);
#112=ORIENTED_EDGE('',*,*,#184,.F.);
#113=ORIENTED_EDGE('',*,*,#190,.T.);
#114=ORIENTED_EDGE('',*,*,#191,.F.);
#115=ORIENTED_EDGE('',*,*,#192,.T.);
#116=ORIENTED_EDGE('',*,*,#187,.F.);
#117=ORIENTED_EDGE('',*,*,#193,.T.);
#118=ORIENTED_EDGE('',*,*,#194,.F.);
#119=ORIENTED_EDGE('',*,*,#195,.T.);
#120=ORIENTED_EDGE('',*,*,#168,.T.);
#121=ORIENTED_EDGE('',*,*,#196,.F.);
#122=ORIENTED_EDGE('',*,*,#197,.T.);
#123=ORIENTED_EDGE('',*,*,#189,.F.);
#124=ORIENTED_EDGE('',*,*,#196,.T.);
#125=ORIENTED_EDGE('',*,*,#197,.F.);
#126=ORIENTED_EDGE('',*,*,#171,.T.);
#127=ORIENTED_EDGE('',*,*,#198,.F.);
#128=ORIENTED_EDGE('',*,*,#194,.T.);
#129=ORIENTED_EDGE('',*,*,#199,.F.);
#130=ORIENTED_EDGE('',*,*,#199,.T.);
#131=ORIENTED_EDGE('',*,*,#193,.F.);
#132=ORIENTED_EDGE('',*,*,#186,.F.);
#133=ORIENTED_EDGE('',*,*,#182,.F.);
#134=ORIENTED_EDGE('',*,*,#172,.F.);
#135=ORIENTED_EDGE('',*,*,#178,.F.);
#136=ORIENTED_EDGE('',*,*,#185,.F.);
#137=ORIENTED_EDGE('',*,*,#195,.F.);
#138=ORIENTED_EDGE('',*,*,#198,.T.);
#139=ORIENTED_EDGE('',*,*,#170,.F.);
#140=ORIENTED_EDGE('',*,*,#200,.T.);
#141=ORIENTED_EDGE('',*,*,#190,.F.);
#142=ORIENTED_EDGE('',*,*,#183,.F.);
#143=ORIENTED_EDGE('',*,*,#179,.F.);
#144=ORIENTED_EDGE('',*,*,#176,.F.);
#145=ORIENTED_EDGE('',*,*,#181,.F.);
#146=ORIENTED_EDGE('',*,*,#188,.F.);
#147=ORIENTED_EDGE('',*,*,#192,.F.);
#148=ORIENTED_EDGE('',*,*,#201,.T.);
#149=ORIENTED_EDGE('',*,*,#174,.F.);
#150=ORIENTED_EDGE('',*,*,#175,.T.);
#151=ORIENTED_EDGE('',*,*,#201,.F.);
#152=ORIENTED_EDGE('',*,*,#191,.T.);
#153=ORIENTED_EDGE('',*,*,#200,.F.);
#154=ORIENTED_EDGE('',*,*,#202,.F.);
#155=ORIENTED_EDGE('',*,*,#203,.F.);
#156=ORIENTED_EDGE('',*,*,#202,.T.);
#157=ORIENTED_EDGE('',*,*,#204,.F.);
#158=ORIENTED_EDGE('',*,*,#203,.T.);
#159=ORIENTED_EDGE('',*,*,#205,.F.);
#160=ORIENTED_EDGE('',*,*,#204,.T.);
#161=ORIENTED_EDGE('',*,*,#206,.F.);
#162=ORIENTED_EDGE('',*,*,#205,.T.);
#163=ORIENTED_EDGE('',*,*,#207,.F.);
#164=ORIENTED_EDGE('',*,*,#206,.T.);
#165=ORIENTED_EDGE('',*,*,#208,.F.);
#166=ORIENTED_EDGE('',*,*,#207,.T.);
#167=ORIENTED_EDGE('',*,*,#208,.T.);
#168=EDGE_CURVE('',#209,#209,#241,.T.);
#169=EDGE_CURVE('',#210,#211,#242,.T.);
#170=EDGE_CURVE('',#211,#212,#54,.F.);
#171=EDGE_CURVE('',#213,#212,#243,.T.);
#172=EDGE_CURVE('',#213,#214,#55,.T.);
#173=EDGE_CURVE('',#214,#215,#244,.T.);
#174=EDGE_CURVE('',#215,#216,#56,.F.);
#175=EDGE_CURVE('',#217,#216,#245,.T.);
#176=EDGE_CURVE('',#217,#210,#57,.T.);
#177=EDGE_CURVE('',#218,#219,#246,.T.);
#178=EDGE_CURVE('',#219,#211,#58,.T.);
#179=EDGE_CURVE('',#210,#218,#59,.T.);
#180=EDGE_CURVE('',#220,#221,#247,.T.);
#181=EDGE_CURVE('',#221,#215,#60,.T.);
#182=EDGE_CURVE('',#214,#220,#61,.T.);
#183=EDGE_CURVE('',#218,#222,#35,.T.);
#184=EDGE_CURVE('',#222,#223,#248,.T.);
#185=EDGE_CURVE('',#223,#219,#36,.T.);
#186=EDGE_CURVE('',#220,#224,#37,.T.);
#187=EDGE_CURVE('',#224,#225,#249,.T.);
#188=EDGE_CURVE('',#225,#221,#38,.T.);
#189=EDGE_CURVE('',#226,#226,#250,.T.);
#190=EDGE_CURVE('',#222,#227,#62,.F.);
#191=EDGE_CURVE('',#228,#227,#251,.F.);
#192=EDGE_CURVE('',#228,#225,#63,.T.);
#193=EDGE_CURVE('',#224,#229,#64,.F.);
#194=EDGE_CURVE('',#230,#229,#252,.F.);
#195=EDGE_CURVE('',#230,#223,#65,.T.);
#196=EDGE_CURVE('',#231,#231,#253,.T.);
#197=EDGE_CURVE('',#232,#232,#254,.T.);
#198=EDGE_CURVE('',#230,#212,#66,.T.);
#199=EDGE_CURVE('',#213,#229,#67,.T.);
#200=EDGE_CURVE('',#217,#227,#68,.T.);
#201=EDGE_CURVE('',#228,#216,#69,.T.);
#202=EDGE_CURVE('',#233,#233,#255,.T.);
#203=EDGE_CURVE('',#234,#234,#256,.T.);
#204=EDGE_CURVE('',#235,#235,#257,.T.);
#205=EDGE_CURVE('',#236,#236,#258,.T.);
#206=EDGE_CURVE('',#237,#237,#259,.T.);
#207=EDGE_CURVE('',#238,#238,#260,.T.);
#208=EDGE_CURVE('',#239,#239,#261,.T.);
#209=VERTEX_POINT('',#544);
#210=VERTEX_POINT('',#546);
#211=VERTEX_POINT('',#547);
#212=VERTEX_POINT('',#549);
#213=VERTEX_POINT('',#551);
#214=VERTEX_POINT('',#553);
#215=VERTEX_POINT('',#555);
#216=VERTEX_POINT('',#557);
#217=VERTEX_POINT('',#559);
#218=VERTEX_POINT('',#563);
#219=VERTEX_POINT('',#564);
#220=VERTEX_POINT('',#569);
#221=VERTEX_POINT('',#570);
#222=VERTEX_POINT('',#579);
#223=VERTEX_POINT('',#581);
#224=VERTEX_POINT('',#593);
#225=VERTEX_POINT('',#595);
#226=VERTEX_POINT('',#603);
#227=VERTEX_POINT('',#605);
#228=VERTEX_POINT('',#607);
#229=VERTEX_POINT('',#610);
#230=VERTEX_POINT('',#612);
#231=VERTEX_POINT('',#616);
#232=VERTEX_POINT('',#619);
#233=VERTEX_POINT('',#634);
#234=VERTEX_POINT('',#637);
#235=VERTEX_POINT('',#640);
#236=VERTEX_POINT('',#643);
#237=VERTEX_POINT('',#646);
#238=VERTEX_POINT('',#649);
#239=VERTEX_POINT('',#652);
#240=VERTEX_POINT('',#654);
#241=CIRCLE('',#386,0.75);
#242=CIRCLE('',#387,0.749999999999999);
#243=CIRCLE('',#388,0.75);
#244=CIRCLE('',#389,0.749999999999999);
#245=CIRCLE('',#390,0.75);
#246=CIRCLE('',#392,0.8);
#247=CIRCLE('',#394,0.8);
#248=CIRCLE('',#396,1.3);
#249=CIRCLE('',#398,1.3);
#250=CIRCLE('',#400,1.3);
#251=CIRCLE('',#401,1.3);
#252=CIRCLE('',#402,1.3);
#253=CIRCLE('',#404,1.35);
#254=CIRCLE('',#406,1.85);
#255=CIRCLE('',#416,1.2);
#256=CIRCLE('',#418,2.5);
#257=CIRCLE('',#420,2.5);
#258=CIRCLE('',#422,2.);
#259=CIRCLE('',#424,1.5);
#260=CIRCLE('',#426,0.744999999999999);
#261=CIRCLE('',#428,0.744999999999999);
#262=EDGE_LOOP('',(#86));
#263=EDGE_LOOP('',(#87,#88,#89,#90,#91,#92,#93,#94));
#264=EDGE_LOOP('',(#95,#96,#97,#98));
#265=EDGE_LOOP('',(#99,#100,#101,#102));
#266=EDGE_LOOP('',(#103,#104,#105,#106));
#267=EDGE_LOOP('',(#107,#108,#109,#110));
#268=EDGE_LOOP('',(#111));
#269=EDGE_LOOP('',(#112,#113,#114,#115,#116,#117,#118,#119));
#270=EDGE_LOOP('',(#120));
#271=EDGE_LOOP('',(#121));
#272=EDGE_LOOP('',(#122));
#273=EDGE_LOOP('',(#123));
#274=EDGE_LOOP('',(#124));
#275=EDGE_LOOP('',(#125));
#276=EDGE_LOOP('',(#126,#127,#128,#129));
#277=EDGE_LOOP('',(#130,#131,#132,#133,#134));
#278=EDGE_LOOP('',(#135,#136,#137,#138,#139));
#279=EDGE_LOOP('',(#140,#141,#142,#143,#144));
#280=EDGE_LOOP('',(#145,#146,#147,#148,#149));
#281=EDGE_LOOP('',(#150,#151,#152,#153));
#282=EDGE_LOOP('',(#154));
#283=EDGE_LOOP('',(#155));
#284=EDGE_LOOP('',(#156));
#285=EDGE_LOOP('',(#157));
#286=EDGE_LOOP('',(#158));
#287=EDGE_LOOP('',(#159));
#288=EDGE_LOOP('',(#160));
#289=EDGE_LOOP('',(#161));
#290=EDGE_LOOP('',(#162));
#291=EDGE_LOOP('',(#163));
#292=EDGE_LOOP('',(#164));
#293=EDGE_LOOP('',(#165));
#294=EDGE_LOOP('',(#166));
#295=EDGE_LOOP('',(#167));
#296=FACE_BOUND('',#262,.T.);
#297=FACE_BOUND('',#263,.T.);
#298=FACE_BOUND('',#264,.T.);
#299=FACE_BOUND('',#265,.T.);
#300=FACE_BOUND('',#266,.T.);
#301=FACE_BOUND('',#267,.T.);
#302=FACE_BOUND('',#268,.T.);
#303=FACE_BOUND('',#269,.T.);
#304=FACE_BOUND('',#270,.T.);
#305=FACE_BOUND('',#271,.T.);
#306=FACE_BOUND('',#272,.T.);
#307=FACE_BOUND('',#273,.T.);
#308=FACE_BOUND('',#274,.T.);
#309=FACE_BOUND('',#275,.T.);
#310=FACE_BOUND('',#276,.T.);
#311=FACE_BOUND('',#277,.T.);
#312=FACE_BOUND('',#278,.T.);
#313=FACE_BOUND('',#279,.T.);
#314=FACE_BOUND('',#280,.T.);
#315=FACE_BOUND('',#281,.T.);
#316=FACE_BOUND('',#282,.T.);
#317=FACE_BOUND('',#283,.T.);
#318=FACE_BOUND('',#284,.T.);
#319=FACE_BOUND('',#285,.T.);
#320=FACE_BOUND('',#286,.T.);
#321=FACE_BOUND('',#287,.T.);
#322=FACE_BOUND('',#288,.T.);
#323=FACE_BOUND('',#289,.T.);
#324=FACE_BOUND('',#290,.T.);
#325=FACE_BOUND('',#291,.T.);
#326=FACE_BOUND('',#292,.T.);
#327=FACE_BOUND('',#293,.T.);
#328=FACE_BOUND('',#294,.T.);
#329=FACE_BOUND('',#18,.T.);
#330=FACE_BOUND('',#295,.T.);
#331=CYLINDRICAL_SURFACE('',#385,0.75);
#332=CYLINDRICAL_SURFACE('',#399,1.3);
#333=CYLINDRICAL_SURFACE('',#419,2.5);
#334=CYLINDRICAL_SURFACE('',#427,0.744999999999999);
#335=ADVANCED_FACE('',(#296,#297),#331,.F.);
#336=ADVANCED_FACE('',(#298),#41,.T.);
#337=ADVANCED_FACE('',(#299),#42,.T.);
#338=ADVANCED_FACE('',(#300),#39,.T.);
#339=ADVANCED_FACE('',(#301),#40,.T.);
#340=ADVANCED_FACE('',(#302,#303),#332,.T.);
#341=ADVANCED_FACE('',(#304,#305),#43,.T.);
#342=ADVANCED_FACE('',(#306,#307),#44,.T.);
#343=ADVANCED_FACE('',(#308,#309),#33,.T.);
#344=ADVANCED_FACE('',(#310),#45,.F.);
#345=ADVANCED_FACE('',(#311),#46,.T.);
#346=ADVANCED_FACE('',(#312),#47,.T.);
#347=ADVANCED_FACE('',(#313),#48,.T.);
#348=ADVANCED_FACE('',(#314),#49,.T.);
#349=ADVANCED_FACE('',(#315),#50,.F.);
#350=ADVANCED_FACE('',(#316),#51,.F.);
#351=ADVANCED_FACE('',(#317,#318),#19,.T.);
#352=ADVANCED_FACE('',(#319,#320),#333,.T.);
#353=ADVANCED_FACE('',(#321,#322),#52,.F.);
#354=ADVANCED_FACE('',(#323,#324),#34,.F.);
#355=ADVANCED_FACE('',(#325,#326),#53,.F.);
#356=ADVANCED_FACE('',(#327,#328),#334,.T.);
#357=ADVANCED_FACE('',(#329,#330),#20,.T.);
#358=CLOSED_SHELL('',(#335,#336,#337,#338,#339,#340,#341,#342,#343,#344,
#345,#346,#347,#348,#349));
#359=CLOSED_SHELL('',(#350,#351,#352,#353,#354,#355,#356,#357));
#360=STYLED_ITEM('',(#362),#376);
#361=STYLED_ITEM('',(#363),#377);
#362=PRESENTATION_STYLE_ASSIGNMENT((#364));
#363=PRESENTATION_STYLE_ASSIGNMENT((#365));
#364=SURFACE_STYLE_USAGE(.BOTH.,#366);
#365=SURFACE_STYLE_USAGE(.BOTH.,#367);
#366=SURFACE_SIDE_STYLE('',(#368));
#367=SURFACE_SIDE_STYLE('',(#369));
#368=SURFACE_STYLE_FILL_AREA(#370);
#369=SURFACE_STYLE_FILL_AREA(#371);
#370=FILL_AREA_STYLE('',(#372));
#371=FILL_AREA_STYLE('',(#373));
#372=FILL_AREA_STYLE_COLOUR('',#374);
#373=FILL_AREA_STYLE_COLOUR('',#375);
#374=COLOUR_RGB('',0.200000002980232,0.200000002980232,0.200000002980232);
#375=COLOUR_RGB('',0.119999997317791,0.119999997317791,0.119999997317791);
#376=MANIFOLD_SOLID_BREP('',#358);
#377=MANIFOLD_SOLID_BREP('',#359);
#378=SHAPE_DEFINITION_REPRESENTATION(#667,#381);
#379=SHAPE_DEFINITION_REPRESENTATION(#666,#382);
#380=SHAPE_DEFINITION_REPRESENTATION(#669,#383);
#381=SHAPE_REPRESENTATION('Body',(#384),#658);
#382=SHAPE_REPRESENTATION('700971300',(#384,#414,#430),#657);
#383=SHAPE_REPRESENTATION('Pin',(#384),#659);
#384=AXIS2_PLACEMENT_3D('',#541,#431,#432);
#385=AXIS2_PLACEMENT_3D('',#542,#433,#434);
#386=AXIS2_PLACEMENT_3D('',#543,#435,#436);
#387=AXIS2_PLACEMENT_3D('',#545,#437,#438);
#388=AXIS2_PLACEMENT_3D('',#550,#440,#441);
#389=AXIS2_PLACEMENT_3D('',#554,#443,#444);
#390=AXIS2_PLACEMENT_3D('',#558,#446,#447);
#391=AXIS2_PLACEMENT_3D('',#561,#449,#450);
#392=AXIS2_PLACEMENT_3D('',#562,#451,#452);
#393=AXIS2_PLACEMENT_3D('',#567,#455,#456);
#394=AXIS2_PLACEMENT_3D('',#568,#457,#458);
#395=AXIS2_PLACEMENT_3D('',#573,#461,#462);
#396=AXIS2_PLACEMENT_3D('',#580,#463,#464);
#397=AXIS2_PLACEMENT_3D('',#587,#465,#466);
#398=AXIS2_PLACEMENT_3D('',#594,#467,#468);
#399=AXIS2_PLACEMENT_3D('',#601,#469,#470);
#400=AXIS2_PLACEMENT_3D('',#602,#471,#472);
#401=AXIS2_PLACEMENT_3D('',#606,#474,#475);
#402=AXIS2_PLACEMENT_3D('',#611,#478,#479);
#403=AXIS2_PLACEMENT_3D('',#614,#481,#482);
#404=AXIS2_PLACEMENT_3D('',#615,#483,#484);
#405=AXIS2_PLACEMENT_3D('',#617,#485,#486);
#406=AXIS2_PLACEMENT_3D('',#618,#487,#488);
#407=AXIS2_PLACEMENT_3D('',#620,#489,#490);
#408=AXIS2_PLACEMENT_3D('',#621,#491,#492);
#409=AXIS2_PLACEMENT_3D('',#624,#495,#496);
#410=AXIS2_PLACEMENT_3D('',#625,#497,#498);
#411=AXIS2_PLACEMENT_3D('',#626,#499,#500);
#412=AXIS2_PLACEMENT_3D('',#628,#502,#503);
#413=AXIS2_PLACEMENT_3D('',#630,#505,#506);
#414=AXIS2_PLACEMENT_3D('',#631,#507,#508);
#415=AXIS2_PLACEMENT_3D('',#632,#509,#510);
#416=AXIS2_PLACEMENT_3D('',#633,#511,#512);
#417=AXIS2_PLACEMENT_3D('',#635,#513,#514);
#418=AXIS2_PLACEMENT_3D('',#636,#515,#516);
#419=AXIS2_PLACEMENT_3D('',#638,#517,#518);
#420=AXIS2_PLACEMENT_3D('',#639,#519,#520);
#421=AXIS2_PLACEMENT_3D('',#641,#521,#522);
#422=AXIS2_PLACEMENT_3D('',#642,#523,#524);
#423=AXIS2_PLACEMENT_3D('',#644,#525,#526);
#424=AXIS2_PLACEMENT_3D('',#645,#527,#528);
#425=AXIS2_PLACEMENT_3D('',#647,#529,#530);
#426=AXIS2_PLACEMENT_3D('',#648,#531,#532);
#427=AXIS2_PLACEMENT_3D('',#650,#533,#534);
#428=AXIS2_PLACEMENT_3D('',#651,#535,#536);
#429=AXIS2_PLACEMENT_3D('',#653,#537,#538);
#430=AXIS2_PLACEMENT_3D('',#655,#539,#540);
#431=DIRECTION('',(0.,0.,1.));
#432=DIRECTION('',(1.,0.,0.));
#433=DIRECTION('',(0.,0.,-1.));
#434=DIRECTION('',(-1.,0.,0.));
#435=DIRECTION('',(0.,0.,-1.));
#436=DIRECTION('',(-1.,0.,0.));
#437=DIRECTION('',(0.,0.,-1.));
#438=DIRECTION('',(-1.,0.,0.));
#439=DIRECTION('',(0.,0.,-1.));
#440=DIRECTION('',(0.,0.,1.));
#441=DIRECTION('',(1.,0.,0.));
#442=DIRECTION('',(0.,0.,-1.));
#443=DIRECTION('',(0.,0.,-1.));
#444=DIRECTION('',(-1.,0.,0.));
#445=DIRECTION('',(0.,0.,-1.));
#446=DIRECTION('',(0.,0.,1.));
#447=DIRECTION('',(1.,0.,0.));
#448=DIRECTION('',(0.,0.,-1.));
#449=DIRECTION('',(0.,0.,-1.));
#450=DIRECTION('',(-1.,0.,0.));
#451=DIRECTION('',(0.,0.,-1.));
#452=DIRECTION('',(-1.,0.,0.));
#453=DIRECTION('',(0.,-1.,0.));
#454=DIRECTION('',(0.,-1.,0.));
#455=DIRECTION('',(0.,0.,-1.));
#456=DIRECTION('',(-1.,0.,0.));
#457=DIRECTION('',(0.,0.,-1.));
#458=DIRECTION('',(-1.,0.,0.));
#459=DIRECTION('',(1.25100250671404E-16,1.,0.));
#460=DIRECTION('',(1.25100250671404E-16,1.,0.));
#461=DIRECTION('',(0.,0.,-1.));
#462=DIRECTION('',(-1.,0.,0.));
#463=DIRECTION('',(0.,0.,-1.));
#464=DIRECTION('',(-1.,0.,0.));
#465=DIRECTION('',(0.,0.,-1.));
#466=DIRECTION('',(-1.,0.,0.));
#467=DIRECTION('',(0.,0.,-1.));
#468=DIRECTION('',(-1.,0.,0.));
#469=DIRECTION('',(0.,0.,-1.));
#470=DIRECTION('',(-1.,0.,0.));
#471=DIRECTION('',(0.,0.,-1.));
#472=DIRECTION('',(-1.,0.,0.));
#473=DIRECTION('',(0.,0.,-1.));
#474=DIRECTION('',(0.,0.,1.));
#475=DIRECTION('',(1.,0.,0.));
#476=DIRECTION('',(0.,0.,-1.));
#477=DIRECTION('',(0.,0.,-1.));
#478=DIRECTION('',(0.,0.,1.));
#479=DIRECTION('',(1.,0.,0.));
#480=DIRECTION('',(0.,0.,-1.));
#481=DIRECTION('',(0.,0.,1.));
#482=DIRECTION('',(1.,0.,0.));
#483=DIRECTION('',(0.,0.,-1.));
#484=DIRECTION('',(-1.,0.,0.));
#485=DIRECTION('',(0.,0.,-1.));
#486=DIRECTION('',(-1.,0.,0.));
#487=DIRECTION('',(0.,0.,-1.));
#488=DIRECTION('',(-1.,0.,0.));
#489=DIRECTION('',(0.,0.,-1.));
#490=DIRECTION('',(-1.,0.,0.));
#491=DIRECTION('',(0.,0.,1.));
#492=DIRECTION('',(1.,0.,0.));
#493=DIRECTION('',(0.,-1.,0.));
#494=DIRECTION('',(1.25100250671404E-16,1.,0.));
#495=DIRECTION('',(-1.,1.25100250671404E-16,0.));
#496=DIRECTION('',(-1.25100250671404E-16,-1.,0.));
#497=DIRECTION('',(1.,0.,0.));
#498=DIRECTION('',(0.,0.,-1.));
#499=DIRECTION('',(1.,0.,0.));
#500=DIRECTION('',(0.,0.,-1.));
#501=DIRECTION('',(0.,-1.,0.));
#502=DIRECTION('',(-1.,1.25100250671404E-16,0.));
#503=DIRECTION('',(-1.25100250671404E-16,-1.,0.));
#504=DIRECTION('',(1.25100250671404E-16,1.,0.));
#505=DIRECTION('',(0.,0.,1.));
#506=DIRECTION('',(1.,0.,0.));
#507=DIRECTION('',(0.,0.,1.));
#508=DIRECTION('',(1.,0.,0.));
#509=DIRECTION('',(1.22561984715753E-16,0.,-1.));
#510=DIRECTION('',(-1.,0.,-1.22561984715753E-16));
#511=DIRECTION('',(1.22561984715753E-16,0.,-1.));
#512=DIRECTION('',(-1.,0.,-1.22561984715753E-16));
#513=DIRECTION('',(1.22561984715753E-16,0.,-1.));
#514=DIRECTION('',(-1.,0.,-1.22561984715753E-16));
#515=DIRECTION('',(1.22561984715753E-16,0.,-1.));
#516=DIRECTION('',(-1.,0.,-1.22561984715753E-16));
#517=DIRECTION('',(1.22561984715753E-16,0.,-1.));
#518=DIRECTION('',(-1.,0.,-1.22561984715753E-16));
#519=DIRECTION('',(1.22561984715753E-16,0.,-1.));
#520=DIRECTION('',(-1.,0.,-1.22561984715753E-16));
#521=DIRECTION('',(-1.22561984715753E-16,0.,1.));
#522=DIRECTION('',(1.,0.,1.22561984715753E-16));
#523=DIRECTION('',(1.22561984715753E-16,0.,-1.));
#524=DIRECTION('',(-1.,0.,-1.22561984715753E-16));
#525=DIRECTION('',(1.22561984715753E-16,0.,-1.));
#526=DIRECTION('',(-1.,0.,-1.22561984715753E-16));
#527=DIRECTION('',(1.22561984715753E-16,0.,-1.));
#528=DIRECTION('',(-1.,0.,-1.22561984715753E-16));
#529=DIRECTION('',(-1.22561984715753E-16,0.,1.));
#530=DIRECTION('',(1.,0.,1.22561984715753E-16));
#531=DIRECTION('',(1.22561984715753E-16,0.,-1.));
#532=DIRECTION('',(-1.,0.,-1.22561984715753E-16));
#533=DIRECTION('',(1.22561984715753E-16,0.,-1.));
#534=DIRECTION('',(-1.,0.,-1.22561984715753E-16));
#535=DIRECTION('',(1.22561984715753E-16,0.,-1.));
#536=DIRECTION('',(-1.,0.,-1.22561984715753E-16));
#537=DIRECTION('',(1.22561984715753E-16,0.,-1.));
#538=DIRECTION('',(-1.,0.,-1.22561984715753E-16));
#539=DIRECTION('',(-1.11022302462516E-16,1.11022302462516E-16,1.));
#540=DIRECTION('',(-1.,-2.22044604925031E-16,-1.11022302462516E-16));
#541=CARTESIAN_POINT('',(0.,0.,0.));
#542=CARTESIAN_POINT('',(0.,0.,0.));
#543=CARTESIAN_POINT('',(0.,0.,-6.12323399573677E-18));
#544=CARTESIAN_POINT('',(-0.75,0.,-6.12323399573677E-18));
#545=CARTESIAN_POINT('',(0.,0.,-5.65));
#546=CARTESIAN_POINT('',(-0.325,-0.675925291729788,-5.65));
#547=CARTESIAN_POINT('',(-0.325,0.675925291729788,-5.65));
#548=CARTESIAN_POINT('',(-0.325,0.675925291729788,0.));
#549=CARTESIAN_POINT('',(-0.325,0.675925291729788,-2.6));
#550=CARTESIAN_POINT('',(0.,0.,-2.6));
#551=CARTESIAN_POINT('',(0.325,0.675925291729788,-2.6));
#552=CARTESIAN_POINT('',(0.325,0.675925291729788,0.));
#553=CARTESIAN_POINT('',(0.325,0.675925291729788,-5.65));
#554=CARTESIAN_POINT('',(0.,0.,-5.65));
#555=CARTESIAN_POINT('',(0.325,-0.675925291729788,-5.65));
#556=CARTESIAN_POINT('',(0.325,-0.675925291729788,0.));
#557=CARTESIAN_POINT('',(0.325,-0.675925291729788,-2.6));
#558=CARTESIAN_POINT('',(0.,0.,-2.6));
#559=CARTESIAN_POINT('',(-0.325,-0.675925291729788,-2.6));
#560=CARTESIAN_POINT('',(-0.325,-0.675925291729788,0.));
#561=CARTESIAN_POINT('',(-0.8,0.,-5.65));
#562=CARTESIAN_POINT('',(0.,0.,-5.65));
#563=CARTESIAN_POINT('',(-0.325,-0.731009575860672,-5.65));
#564=CARTESIAN_POINT('',(-0.325,0.731009575860672,-5.65));
#565=CARTESIAN_POINT('',(-0.325,1.3,-5.65));
#566=CARTESIAN_POINT('',(-0.325,1.3,-5.65));
#567=CARTESIAN_POINT('',(-0.8,0.,-5.65));
#568=CARTESIAN_POINT('',(0.,0.,-5.65));
#569=CARTESIAN_POINT('',(0.325,0.731009575860672,-5.65));
#570=CARTESIAN_POINT('',(0.325,-0.731009575860672,-5.65));
#571=CARTESIAN_POINT('',(0.325,-1.3,-5.65));
#572=CARTESIAN_POINT('',(0.325,-1.3,-5.65));
#573=CARTESIAN_POINT('',(0.,0.,-5.15));
#574=CARTESIAN_POINT('',(-0.325,-0.731009575860675,-5.65000000000004));
#575=CARTESIAN_POINT('',(-0.325,-0.865267045251941,-5.65000000000004));
#576=CARTESIAN_POINT('',(-0.325,-1.13798944310192,-5.5526621168702));
#577=CARTESIAN_POINT('',(-0.325,-1.25871958751759,-5.28463074800709));
#578=CARTESIAN_POINT('',(-0.325,-1.25871958751759,-5.15000000000001));
#579=CARTESIAN_POINT('',(-0.325,-1.25871958751741,-5.15));
#580=CARTESIAN_POINT('',(0.,0.,-5.15));
#581=CARTESIAN_POINT('',(-0.325,1.25871958751741,-5.15));
#582=CARTESIAN_POINT('',(-0.325,1.25871958751795,-5.14999999999999));
#583=CARTESIAN_POINT('',(-0.325,1.25871958751796,-5.28413177713279));
#584=CARTESIAN_POINT('',(-0.325,1.13853768759825,-5.55235857661699));
#585=CARTESIAN_POINT('',(-0.325,0.865366082511235,-5.65));
#586=CARTESIAN_POINT('',(-0.325,0.731009575860672,-5.65));
#587=CARTESIAN_POINT('',(0.,0.,-5.15));
#588=CARTESIAN_POINT('',(0.325,0.731009575860675,-5.65000000000004));
#589=CARTESIAN_POINT('',(0.325,0.865267045251941,-5.65000000000004));
#590=CARTESIAN_POINT('',(0.325,1.13798944310192,-5.5526621168702));
#591=CARTESIAN_POINT('',(0.325,1.25871958751759,-5.28463074800709));
#592=CARTESIAN_POINT('',(0.325,1.25871958751759,-5.15000000000001));
#593=CARTESIAN_POINT('',(0.325,1.25871958751741,-5.15));
#594=CARTESIAN_POINT('',(0.,0.,-5.15));
#595=CARTESIAN_POINT('',(0.325,-1.25871958751741,-5.15));
#596=CARTESIAN_POINT('',(0.325,-1.25871958751795,-5.14999999999999));
#597=CARTESIAN_POINT('',(0.325,-1.25871958751796,-5.28413177713279));
#598=CARTESIAN_POINT('',(0.325,-1.13853768759825,-5.55235857661699));
#599=CARTESIAN_POINT('',(0.325,-0.865366082511234,-5.65));
#600=CARTESIAN_POINT('',(0.325,-0.731009575860672,-5.65));
#601=CARTESIAN_POINT('',(0.,0.,0.));
#602=CARTESIAN_POINT('',(0.,0.,-0.85));
#603=CARTESIAN_POINT('',(-1.3,0.,-0.85));
#604=CARTESIAN_POINT('',(-0.325,-1.25871958751741,0.));
#605=CARTESIAN_POINT('',(-0.325,-1.25871958751741,-2.6));
#606=CARTESIAN_POINT('',(0.,0.,-2.6));
#607=CARTESIAN_POINT('',(0.325,-1.25871958751741,-2.6));
#608=CARTESIAN_POINT('',(0.325,-1.25871958751741,0.));
#609=CARTESIAN_POINT('',(0.325,1.25871958751741,0.));
#610=CARTESIAN_POINT('',(0.325,1.25871958751741,-2.6));
#611=CARTESIAN_POINT('',(0.,0.,-2.6));
#612=CARTESIAN_POINT('',(-0.325,1.25871958751741,-2.6));
#613=CARTESIAN_POINT('',(-0.325,1.25871958751741,0.));
#614=CARTESIAN_POINT('',(-0.75,0.,-4.28626379701574E-17));
#615=CARTESIAN_POINT('',(0.,0.,-7.9602041944578E-17));
#616=CARTESIAN_POINT('',(-1.35,0.,-7.9602041944578E-17));
#617=CARTESIAN_POINT('',(-1.85,0.,-0.85));
#618=CARTESIAN_POINT('',(0.,0.,-0.85));
#619=CARTESIAN_POINT('',(-1.85,0.,-0.85));
#620=CARTESIAN_POINT('',(0.,0.,-0.85));
#621=CARTESIAN_POINT('',(0.,0.,-2.6));
#622=CARTESIAN_POINT('',(-0.325,1.3,-2.6));
#623=CARTESIAN_POINT('',(0.325,-1.3,-2.6));
#624=CARTESIAN_POINT('',(0.325,-1.3,-2.6));
#625=CARTESIAN_POINT('',(-0.325,1.3,-2.6));
#626=CARTESIAN_POINT('',(-0.325,1.3,-2.6));
#627=CARTESIAN_POINT('',(-0.325,1.3,-2.6));
#628=CARTESIAN_POINT('',(0.325,-1.3,-2.6));
#629=CARTESIAN_POINT('',(0.325,-1.3,-2.6));
#630=CARTESIAN_POINT('',(0.,0.,-2.6));
#631=CARTESIAN_POINT('',(0.,0.,0.));
#632=CARTESIAN_POINT('',(-2.02066721859313E-16,0.,7.1));
#633=CARTESIAN_POINT('',(-8.70190091481844E-16,0.,7.1));
#634=CARTESIAN_POINT('',(-1.2,0.,7.1));
#635=CARTESIAN_POINT('',(-8.67361737988404E-16,0.,5.8));
#636=CARTESIAN_POINT('',(-7.10859511351365E-16,0.,5.8));
#637=CARTESIAN_POINT('',(-2.5,0.,5.8));
#638=CARTESIAN_POINT('',(-1.40946282423116E-15,0.,11.5));
#639=CARTESIAN_POINT('',(-6.9860331287979E-16,0.,5.7));
#640=CARTESIAN_POINT('',(-2.5,0.,5.7));
#641=CARTESIAN_POINT('',(-2.5,0.,5.7));
#642=CARTESIAN_POINT('',(-6.9860331287979E-16,0.,5.7));
#643=CARTESIAN_POINT('',(-2.,0.,5.7));
#644=CARTESIAN_POINT('',(-6.9860331287979E-16,0.,5.7));
#645=CARTESIAN_POINT('',(-7.96652900652392E-16,0.,6.5));
#646=CARTESIAN_POINT('',(-1.5,0.,6.5));
#647=CARTESIAN_POINT('',(-1.5,0.,6.5));
#648=CARTESIAN_POINT('',(-7.96652900652392E-16,0.,6.5));
#649=CARTESIAN_POINT('',(-0.745,0.,6.5));
#650=CARTESIAN_POINT('',(-1.40946282423116E-15,0.,11.5));
#651=CARTESIAN_POINT('',(-8.5793389301027E-17,0.,0.700000000000001));
#652=CARTESIAN_POINT('',(-0.744999999999999,0.,0.700000000000001));
#653=CARTESIAN_POINT('',(-8.80914265144472E-17,0.,0.700000000000001));
#654=CARTESIAN_POINT('',(-2.37846851589008E-15,0.,-1.0842021724855E-16));
#655=CARTESIAN_POINT('',(-9.10978719995246E-16,4.32986979603811E-16,-3.9));
#656=MECHANICAL_DESIGN_GEOMETRIC_PRESENTATION_REPRESENTATION('',(#360,#361),
#657);
#657=(
GEOMETRIC_REPRESENTATION_CONTEXT(3)
GLOBAL_UNCERTAINTY_ASSIGNED_CONTEXT((#660))
GLOBAL_UNIT_ASSIGNED_CONTEXT((#665,#664,#663))
REPRESENTATION_CONTEXT('700971300','TOP_LEVEL_ASSEMBLY_PART')
);
#658=(
GEOMETRIC_REPRESENTATION_CONTEXT(3)
GLOBAL_UNCERTAINTY_ASSIGNED_CONTEXT((#661))
GLOBAL_UNIT_ASSIGNED_CONTEXT((#665,#664,#663))
REPRESENTATION_CONTEXT('Body','COMPONENT_PART')
);
#659=(
GEOMETRIC_REPRESENTATION_CONTEXT(3)
GLOBAL_UNCERTAINTY_ASSIGNED_CONTEXT((#662))
GLOBAL_UNIT_ASSIGNED_CONTEXT((#665,#664,#663))
REPRESENTATION_CONTEXT('Pin','COMPONENT_PART')
);
#660=UNCERTAINTY_MEASURE_WITH_UNIT(LENGTH_MEASURE(0.005),#665,
'DISTANCE_ACCURACY_VALUE','Maximum Tolerance applied to model');
#661=UNCERTAINTY_MEASURE_WITH_UNIT(LENGTH_MEASURE(0.005),#665,
'DISTANCE_ACCURACY_VALUE','Maximum Tolerance applied to model');
#662=UNCERTAINTY_MEASURE_WITH_UNIT(LENGTH_MEASURE(0.005),#665,
'DISTANCE_ACCURACY_VALUE','Maximum Tolerance applied to model');
#663=(
NAMED_UNIT(*)
SI_UNIT($,.STERADIAN.)
SOLID_ANGLE_UNIT()
);
#664=(
NAMED_UNIT(*)
PLANE_ANGLE_UNIT()
SI_UNIT($,.RADIAN.)
);
#665=(
LENGTH_UNIT()
NAMED_UNIT(*)
SI_UNIT(.MILLI.,.METRE.)
);
#666=PRODUCT_DEFINITION_SHAPE('','',#671);
#667=PRODUCT_DEFINITION_SHAPE('','',#672);
#668=PRODUCT_DEFINITION_SHAPE(' ','NAUO PRDDFN',#23);
#669=PRODUCT_DEFINITION_SHAPE('','',#673);
#670=PRODUCT_DEFINITION_SHAPE(' ','NAUO PRDDFN',#24);
#671=PRODUCT_DEFINITION('','',#677,#674);
#672=PRODUCT_DEFINITION('','',#678,#675);
#673=PRODUCT_DEFINITION('','',#679,#676);
#674=PRODUCT_DEFINITION_CONTEXT('',#693,'design');
#675=PRODUCT_DEFINITION_CONTEXT('',#693,'design');
#676=PRODUCT_DEFINITION_CONTEXT('',#693,'design');
#677=PRODUCT_DEFINITION_FORMATION_WITH_SPECIFIED_SOURCE('','',#683,
 .NOT_KNOWN.);
#678=PRODUCT_DEFINITION_FORMATION_WITH_SPECIFIED_SOURCE('','',#684,
 .NOT_KNOWN.);
#679=PRODUCT_DEFINITION_FORMATION_WITH_SPECIFIED_SOURCE('','',#685,
 .NOT_KNOWN.);
#680=PRODUCT_RELATED_PRODUCT_CATEGORY('','',(#683));
#681=PRODUCT_RELATED_PRODUCT_CATEGORY('','',(#684));
#682=PRODUCT_RELATED_PRODUCT_CATEGORY('','',(#685));
#683=PRODUCT('700971300','700971300','700971300',(#689));
#684=PRODUCT('Body','Body','Body',(#690));
#685=PRODUCT('Pin','Pin','Pin',(#691));
#686=PRODUCT_CATEGORY('','');
#687=PRODUCT_CATEGORY('','');
#688=PRODUCT_CATEGORY('','');
#689=PRODUCT_CONTEXT('',#693,'mechanical');
#690=PRODUCT_CONTEXT('',#693,'mechanical');
#691=PRODUCT_CONTEXT('',#693,'mechanical');
#692=APPLICATION_PROTOCOL_DEFINITION('international standard',
'automotive_design',2010,#693);
#693=APPLICATION_CONTEXT(
'core data for automotive mechanical design processes');
ENDSEC;
END-ISO-10303-21;
